Cifra Club

Estos Celos

Vicente Fernández

Cifrado: Principal (guitarra y guitarra eléctrica)
Selo Cifra Club: esta cifra foi revisada para atender aos critérios oficiais da nossa Equipe de Qualidade.
tono: C#m
INTRO

    E
E|---4--0--2--0--4--0--2--0--4--0--2--0--4----------------|
B|---5--0--2--0--5--0--2--0--5--0--2--0--5----------------|
G|--------------------------------------------------------|
D|--------------------------------------------------------|
A|--------------------------------------------------------|
E|--------------------------------------------------------|
                                        B7
E|---4--0--2--0--4--0--2--0--4--0--2--0-------------------|
B|---5--0--2--0--5--0--2--0--5--0--2--0--4----------------|
G|--------------------------------------------------------|
D|--------------------------------------------------------|
A|--------------------------------------------------------|
E|--------------------------------------------------------|

Esto va con otro instrumento pero con guitarra seria asi:)
    B7                A     B7          A
E|---5--5/7--9--7--9--7-----5--5/7--9--7----9--7----------|
B|-----------------------10--------------10------10-------|
G|--------------------------------------------------------|
D|--------------------------------------------------------|
A|--------------------------------------------------------|
E|--------------------------------------------------------|
    E            B7       E
E|---4--0--2--0--2-2-0------------------------------------|
B|---5--0--2--0--2-2-0--4-4/5-----------------------------|
G|--------------------------------------------------------|
D|--------------------------------------------------------|
A|--------------------------------------------------------|
E|--------------------------------------------------------|

    E
Te miré estabas tan bonita, tan sensual
                           B7
Te imaginé ajena y me hizo mal
        A    B7          A
Ay, ay amor! ay, ay qué dolor!
 E                       B7                     E
Qué tarde comprendí, contigo tenía todo y lo perdí

      E
Te miré con tu melena al viento, y tu mirar
                         B7
Al ras de tu escote, tu lunar
         A   B7           A
Ay, ay amor! ay, ay qué dolor!
 E                           B7                        E
Hoy muero de pensar, que no voy a ser yo al que vas a amar.


Coro
  C#m
Estos celos me hacen daño, me enloquecen
    A         B7             E
Jamás aprenderé a vivir sin ti
 A                   G#        C#m  B     A
Lo peor es que muy tarde comprendí, sí,   sí
  A            B7          E
Contigo tenía todo y lo perdí,
  A            B7           E
Contigo tenía todo y lo perdí.

  E
E|---4--0--2--0--4--0--2--0--4--0--2--0--4----------------|
B|---5--0--2--0--5--0--2--0--5--0--2--0--5----------------|
G|--------------------------------------------------------|
D|--------------------------------------------------------|
A|--------------------------------------------------------|
E|--------------------------------------------------------|
                                        B7
E|---4--0--2--0--4--0--2--0--4--0--2--0-------------------|
B|---5--0--2--0--5--0--2--0--5--0--2--0--4----------------|
G|--------------------------------------------------------|
D|--------------------------------------------------------|
A|--------------------------------------------------------|
E|--------------------------------------------------------|

    B7                A     B7          A
E|---5--5/7--9--7--9--7-----5--5/7--9--7----9--7----------|
B|-----------------------10--------------10------10-------|
G|--------------------------------------------------------|
D|--------------------------------------------------------|
A|--------------------------------------------------------|
E|--------------------------------------------------------|
    E            B7       E
E|---4--0--2--0--2-2-0------------------------------------|
B|---5--0--2--0--2-2-0--4-4/5-----------------------------|
G|--------------------------------------------------------|
D|--------------------------------------------------------|
A|--------------------------------------------------------|
E|--------------------------------------------------------|


    E
Te miré me confundió el llanto que rodó
                           B7
Surgió una esperanza, pero no
               A     B7             A
No, ya no hay amor,  no, y fue mi error
 E                             B7                        E
Y hoy muero de pensar, que no voy a ser yo al que vas a amar.


Coro

  C#m
Estos celos me hacen daño, me enloquecen
    A         B7             E
Jamás aprenderé a vivir sin ti
 A                   G#        C#m  B     A
Lo peor es que muy tarde comprendí, sí,   sí
  A            B7          E
Contigo tenía todo y lo perdí,
  A            B7           E
Contigo tenía todo y lo perdí.


Final

E

E|--4--0--2--0--4--0--2--0--4--0--2--0-4|
B|--5--0--2--0--5--0--2--0--5--0--2--0-5|
G|-------------------------------------4|
D|-------------------------------------6|
A|--------------------------------------|
E|--------------------------------------|



Salu2 a Lydia( mi hermanita)
Al Bachi 4
a la wera Varela
Al pp
Al jimmy
Al Ruben y a Todos
Otros videos de esta canción
8.445 exhibiciones
    • ½ Tono
    • Am
    • Bbm
    • Bm
    • Cm
    • C#m
    • Dm
    • Ebm
    • Em
    • Fm
    • F#m
    • Gm
    • G#m
  • Agregar a la lista

Afinación de cifrado

Afinador online

    OK