Cifra Club

Hermoso cariño

Vicente Fernández

Cifrado: Principal (guitarra y guitarra eléctrica)
Selo Cifra Club: esta cifra foi revisada para atender aos critérios oficiais da nossa Equipe de Qualidade.
tono: C#m
E|--11-11--10-8--11-11|
B|--------------------|
G|--12-12--10-8--12-12|
D|--------------------|
A|--------------------|
E|--------------------|

E|--11-11--10-8-11-10-11-10-11-10|
B|-------------------------------|
G|--12-12--10-8-12-10-12-10-12-10|
D|-------------------------------|
A|-------------------------------|
E|-------------------------------|

E|--10-10--8-6-8-8--6-6-4-6-6--6-6-4-3-4|
B|--------------------------------------|
G|--10-10--8-7-8-8--6-6-5-6-6--6-6-5-3-5|
D|--------------------------------------|
A|--------------------------------------|
E|--------------------------------------|

E|-6-8-10-12|
B|----------|
G|-6-8-10-12|
D|----------|
A|----------|
E|----------|

E|-12-10-8-6|
B|----------|
G|-12-10-8-6|
D|----------|
A|----------|
E|----------|

antes de empesar la cancion el bajo
 acompaña a la guitarra asi:

E|---------------|
B|---------------|
G|---------------|
D|---------------|
A|--2-2--3-3--4-4|
E|---------------|

E|----------------|
B|----------------|
G|----------------|
D|----------------|
A|-4-4--3-3--2-2-0|
E|----------------|

E|--------|
B|--------|
G|--------|
D|--------|
A|--0-----|
E|-0--2--4|
Otros videos de esta canción
    2.851 exhibiciones
      • ½ Tono
      • Am
      • Bbm
      • Bm
      • Cm
      • C#m
      • Dm
      • Ebm
      • Em
      • Fm
      • F#m
      • Gm
      • G#m
    • Agregar a la lista

    Afinación de cifrado

    Afinador online

      OK