Cifra Club

La Derrota

Vicente Fernández

Cifrado: Principal (guitarra y guitarra eléctrica)
Selo Cifra Club: esta cifra foi revisada para atender aos critérios oficiais da nossa Equipe de Qualidade.
tono: D
intro:

requinto en guitarra.

E|----------------3-2/(7)-7-7--7-------5-5--5h(7)(5)----------|
B|------3--2-5-3------------------5/(7)-----7-----------------|
G|---------------4--2/(7)-7-7-7-------------------------------|
D|---4-4---2-5-4----------------------------------------------|
A|------------------------------------------------------------|
E|------------------------------------------------------------|

esta es la parte de las trompetas version guitarra.

D        D7                    G        A7

E|--7-8---7-8--7-8---12--10-10--8---7--7-12-10-12-10-12-10-9--|
B|--8-10--8-10-8-10--13--12-12--10--8--8-14-12-14-12-14-12-10-|
G|------------------------------------------------------------|
D|------------------------------------------------------------|
A|------------------------------------------------------------|
E|------------------------------------------------------------|


           D                       A7            D

E|--7-5--10-10-10---2-3-5-3-2-3--9--9--9---9--5-5-3-2------2---|
B|--8-7--12-12-12---3-5-7-5-3-5--10-10-10--10-7-7-5-3------3---|
G|---------------------------------------------------------2---|
D|------------------------------------------------------0--0---|
A|---------------------------------------------------------0---|
E|---------------------------------------------------------x---|

D
Por darle rienda suelta a mis antojos
D7                              G
por no tener conciencia del abismo
    A7                        D
por eso ayer hice llorar sus ojos
                    A7           D
y hoy mis ojos también hacen lo mismo

D
Por no medir los pasos que tomaba
D7                             G
Por eso es que he llegado a la derrota
  A7                             D
le hice una traición a quien me amaba
                   A7
y ahora estoy como estoy
           D
con mi alma rota

                              A7
Que tal que tal se siente corazón
                D
ahora si te pegaron
                       A7
es cara cara cara la traición
                    D
y al fin de la cobraron

Por darle rienda suelta a mis antojos
por no tener conciencia del abismo
por eso ayer hice llorar sus ojos
y hoy mis ojos también hacen lo mismo

Que tal que tal se siente corazón
ahora si te pegaron
es cara cara cara la traición
y al fin de la cobraron

Por no medir los pasos que tomaba
por eso es que he llegado a la derrota
le hice una traición a quien me amaba
y ahora estoy como estoy
con mi alma rota.
Otros videos de esta canción
    3.157 exhibiciones
      • ½ Tono
      • A
      • Bb
      • B
      • C
      • Db
      • D
      • Eb
      • E
      • F
      • F#
      • G
      • Ab
    • Agregar a la lista

    Afinación de cifrado

    Afinador online

      OK