Cifra Club

Mujeres Divinas

Vicente Fernández

Cifrado: Principal (guitarra y guitarra eléctrica)
Selo Cifra Club: esta cifra foi revisada para atender aos critérios oficiais da nossa Equipe de Qualidade.
tono: Fm
[Intro] Eb7  Ab  Eb7  Ab
        C7  Fm  C7/G  Fm
       
[Tab - Solo Intro]

Parte 1 de 4
E|------------------------------------------|
B|-----9---8---6--8-8--8/11-11--------------|
G|--10---8---6----8-8--8/12-12--------------|
D|------------------------------------------|
A|------------------------------------------|
E|------------------------------------------|

Parte 2 de 4 
E|-----------------------8----9-11----------|
B|--8-8----------------9---11---13----------|
G|--8-8----10-8----5------------------------|
D|------11----10---6------------------------|
A|------------------------------------------|
E|------------------------------------------|

Parte 3 de 4 
E|-11-11-11/15-15--11-11--9--9---8----------|
B|------------------------------------------|
G|-12-12| –12/15-15--12-12--10-10--8----------|
D|------------------------------------------|
A|------------------------------------------|
E|------------------------------------------|

Parte 4 de 4 
E|------------------------------------------|
B|-----9----11----13------------------------|
G|------------------------------------------|
D|--10---11----13---------------------------|
A|------------------------------------------|
E|------------------------------------------|

[Primeira Parte]

Hablando
                   Bbm7
De mujeres y traiciones
     C7/G        C7
Se fueron consumiendo
       Fm
Las botellas
    
Pidieron que cantara
         C7/G  C7
Mis canciones
C7/G                 C7
     Y yo cantè las dos
            Fm
Encontra de ellas

[Pré-Refrão 1]

                            Bbm
De pronto que se acerca un caballero
    Eb7                      Ab
Su pelo, ya pintaba algunas canas
    Fm                   C7/G  C7
Me dijo le suplico compañero
     C7/G              C7            Fm
Que no hable en mi presencia de las damas

[Refrão]

    Bbm7       Eb7        Ab
Le dije que nosotros simplemente
    Bbm7        Eb7         Ab 
Hablamos de lo mal que nos pagaron

       C7/G    C7
Que si alguien
             Fm
Opinaba diferente
   C7/G         C7       Fm
Serìa porque jamàs lo traicionaron

       C7/G    C7
Que si alguien
             Fm
Opinaba diferente
   C7/G         C7       Fm
Serìa porque jamàs lo traicionaron

[Solo] Eb7  Ab  Eb7  Ab
       C7  Fm  C7/G  Fm

[Tab - Solo]

Parte 1 de 4
E|------------------------------------------|
B|-----9---8---6--8-8--8/11-11--------------|
G|--10---8---6----8-8--8/12-12--------------|
D|------------------------------------------|
A|------------------------------------------|
E|------------------------------------------|

Parte 2 de 4  
E|-----------------------8----9-11----------|
B|--8-8----------------9---11---13----------|
G|--8-8----10-8----5------------------------|
D|------11----10---6------------------------|
A|------------------------------------------|
E|------------------------------------------|

Parte 3 de 4
E|-11-11-11/15-15--11-11--9--9---8----------|
B|------------------------------------------|
G|-12-12| –12/15-15--12-12--10-10--8----------|
D|------------------------------------------|
A|------------------------------------------|
E|------------------------------------------|

Parte 4 de 4   
E|------------------------------------------|
B|-----9----11----13------------------------|
G|------------------------------------------|
D|--10---11----13---------------------------|
A|------------------------------------------|
E|------------------------------------------|

[Segunda Parte]

    Fm              Bbm7
Me dijo yo soy uno de los seres
     C7/G       C7          Fm
Que màs a soportado los fracasos
                            C7/G  C7 
Y siempre me dejaron las mujeres
    C7/G          C7            Fm
Llorando y con el alma hecha pedazos

[Pré-Refrão 2]

                              Bbm7
Màs nunca les reprecho mis heridas
     Eb7                      Ab
Se tiene que sufrir cuando se ama
     Fm                       C7/G  C7
Las horas màs hermosas de mi vida
     C7/G              C7     Fm
Las he pasado al lado de una dama

[Refrão Final]

    Bbm7      Eb7           Ab
Pudieramos morir en las cantinas
   Bbm7        Eb7          Ab
Y nunca lograrìamos olvidarlas 

   C7/G  C7             Fm
Mujeres  o mujeres tan divinas
     C7/G        C7          Fm
No queda otro camino que adorarlas

   C7/G  C7                Fm
Mujeres     o mujeres tan divinas
     C7/G        C7 
No queda otro camino 
Fm               
   Que adorarlas

[Final] C7  Fm
Otros videos de esta canción
    28.761 exhibiciones
    • Simplificar cifrado
      • ½ Tono
      • Am
      • Bbm
      • Bm
      • Cm
      • C#m
      • Dm
      • Ebm
      • Em
      • Fm
      • F#m
      • Gm
      • G#m
    • Agregar a la lista

    Afinación de cifrado

    Afinador online

      OK