Cifra Club

Para Siempre

Vicente Fernández

Cifrado: Principal (guitarra y guitarra eléctrica)
Selo Cifra Club: esta cifra foi revisada para atender aos critérios oficiais da nossa Equipe de Qualidade.
tono: E
E|-------------0-2-3-2h3p2--0---0---------------------------|
B|----------0-----------------4---0-1---0h1---0-------------|
G|--------0---------------------------2-----2---------------|
D|------2---------------------------------------------------|
A|----2-------------------------------------------2h3h5---2-|
E|--0-------------------------------------------------------|

E|-----------------------------------------0-------|
B|---0---0---0---0---0---0---0-----------0---------|
G|-4---5---2---4---0---2---------------0-----0-----|
D|-------------------------4---------2-----------2-|
A|---------------------------------2-------------2-|
E|-------------------------------0---------------0-|

Vale más un buen amor (en esta parte va arpegiada)


E|------0-----0----0-----0------0-------0-------0--|
B|----0-----0----0-----0------0------0--------0----|
G|-4-----4----5------2-----4-------0-------2-------|
D|------------------------------------------------|
A|------------------------------------------------|
E|-----------------------------------------------|



Este es el intermedio


E|---7-8--7-8--7-8--7-8p7-8-10-10s12-7------------------|
B|-10---10---10---10-------------------8-------8--7| —8s10-
G|---------------------------------------9---9-----------|
D|------------------------------------------------------|
A|-------------------------------------------------------|
E|------------------------------------------------------|

E—--------------------------------------------
B|--10-10-------8----10----12------------------|
G|---------------------------------------------|
D|---------------------------------------------|
A|---------------------------------------------|
E|---------------------------------------------|


Este es el final y parte del intermedio


E|-------8h10p8------8h10p8------8h10p8----7| —8p7--8-10--10s12-
B|-10-12-------10-12------10--12-------10---------------------|
G|------------------------------------------------------------|
D|------------------------------------------------------------|
A|------------------------------------------------------------|
E|------------------------------------------------------------|

E|--7---------------------------------------------------12-|
B|----8-------8--7--8s10--10-10--12-10h12p10--8---12----12-|
G|------9---9-------------------------------------12----12-|
D|---------------------------------------------------------|
A|---------------------------------------------------------|
E|---------------------------------------------------------|
Otros videos de esta canción
    1.456 exhibiciones
      • ½ Tono
      • A
      • Bb
      • B
      • C
      • Db
      • D
      • Eb
      • E
      • F
      • F#
      • G
      • Ab
    • Agregar a la lista

    Afinación de cifrado

    Afinador online

      OK