Cifra Club

Corrido de Pancho Villa

Victor Jara

Cifrado: Principal (guitarra y guitarra eléctrica)
Já pensou em usar uma coleção de roupas do Cifra Club? Responda as perguntas abaixo e nos ajude nessa missão! →
tono: C
E|---------------------------------------------------|
B|---------------------------------------------------|
G|---------------------------------------------------|
D|--------------------------------------3-2----------|
A|--------------2-2-0-0-2-0-2-4-2-0-2-0--------------|
E|0-0-0-0-0-1-0--------------------------------------|

                     Em   Em   Em
E|---------------------0----0----0-------------------|
B|---------------------------------------------------|
G|---------------------------------------------------|
D|2-3-4-6-4-3-2-1------------------------------------|
A|---------------------------------------------------|
E|---------------------------------------------------|

( G  Em  G  Em  C )

Fui soldado de Francisco Villa
G             Em   G  Em    C
de aquel hombre de fama inmortal
G           Em     G  Em      C
que aunque estuvo sentado en la silla
G         Em    G Em     C
no envidiara la presidencial.
G     Em      G Em        C
Ahora vivo allá por la orilla
G         Em     G   Em    C     G
recordando aquel tiempo inmortal,
ayayay,
G            Em  G  Em     C
ahora vivo allá por la orilla
G            Em      G   Em   C
recordando a Villa allá por Parral.

                     Em   Em   Em
E|---------------------0----0----0-------------------
B|---------------------------------------------------
G|---------------------------------------------------
D|2-3-4-6-4-3-2-1------------------------------------
A|---------------------------------------------------
E|---------------------------------------------------

G             Em  G  Em  C
Yo fui uno de aquellos dorados
G              Em    G   Em  C
que con tiempo llegó a ser mayor
G           Em  G  Em   C
en la lucha quedamos lisiados
G           Em  G  Em  C
defendiendo la patria y honor.
G              Em G  Em   C
Hoy recuerdo los tiempos pasados
G            Em  G Em  C     G
que peleamos con el invasor
ayayay,
G           Em    G   Em  C
hoy recuerdo los tiempos pasados
G                      Em  G Em  C
de aquellos dorados que yo fui mayor.

E|---------------------------------------------------
B|---------------------------------------------------
G|---------------------------------------------------
D|--------------------------------------3-2----------
A|--------------2-2-0-0-2-0-2-4-2-0-2-0--------------
E|0-0-0-0-0-1-0--------------------------------------

                     Em   Em   Em
E|---------------------0----0----0-------------------
B|---------------------------------------------------
G|---------------------------------------------------
D|2-3-4-6-4-3-2-1------------------------------------
A|---------------------------------------------------
E|---------------------------------------------------

G             Em  G Em  C
Mi caballo que tanto montaba
G             Em  G Em  C
en Jiménez la muerte alcanzó
G             Em  G Em C
una bala que a mí me tocaba
G           Em  G Em  C
a su cuerpo se le atravesó.
G            Em   G  Em C
Al morir de dolor relinchaba
G            Em   G  Em  C    G
por la patria la vida entregó
ayayay,
G           Em G Em    C
al morir de dolor relinchaba
G               Em G  Em   C
cómo le lloraba cuando se murió.

E|---------------------------------------------------
B|---------------------------------------------------
G|---------------------------------------------------
D|--------------------------------------3-2----------
A|--------------2-2-0-0-2-0-2-4-2-0-2-0--------------
E|0-0-0-0-0-1-0--------------------------------------

                     Em   Em   Em
E|---------------------0----0----0-------------------
B|---------------------------------------------------
G|---------------------------------------------------
D|2-3-4-6-4-3-2-1------------------------------------
A|---------------------------------------------------
E|---------------------------------------------------

G            Em  G Em   C
Pancho Villa te llevo grabado
G           Em  G Em   C
en mi mente y en mi corazón
G             Em  G  Em  C
y aunque a veces me vi derrotado
G               Em  G  Em  C
por las fuerzas de Álvaro Obregón
G               Em G Em  C
siempre anduve como fiel soldado
G            Em  G  Em  C     G
hasta el fin de la revolución
ayayay,
G               Em  G Em    C
siempre anduve como fiel soldado
G                    Em  G Em   C
que tanto ha luchado al pie del cañón.

E|---------------------------------------------------
B|---------------------------------------------------
G|---------------------------------------------------
D|--------------------------------------3-2----------
A|--------------2-2-0-0-2-0-2-4-2-0-2-0--------------
E|0-0-0-0-0-1-0--------------------------------------

E|---------------------------------------------------
B|---------------------------------------------------
G|---------------------------------------------------
D|2-3-4-6-4-3-2-1--0-1-------------------------------
A|---------------------------------------------------
E|---------------------------------------------------

Composición de Victor Jara
Colaboración y revisión:
  • Ricardo Bianco
219 vistas
    • ½ Tono
    • A
    • Bb
    • B
    • C
    • Db
    • D
    • Eb
    • E
    • F
    • F#
    • G
    • Ab
  • Agregar a la lista

    0 comentarios

    Ver todos los comentarios

    ¿Lograste tocar?

    0 Tocaron 0 Aún no

    ¡Graba un video tocando Corrido de Pancho Villa y envíanoslo!

    00:00 / 00:00
    Outros vídeos desta música
    Repetir Calidad Automático
    Outros vídeos desta música
    00:00 / 00:00
    Automático
    OK