Cifra Club

Água de Oceano

Victor e Leo

Acordes: Principal
reproducciones 521
Tono: C# (con acordes en la forma de C) Capo en 1ª casa
Intro 2x: Am7  C  G
Solo 1:

E|--------------------------
B|-6-2-6-4---4-----6-2-6-4--
G|---------1---1-3----------
D|--------------------------
A|--------------------------
E|--------------------------


C                  G           Am7
 Em pleno deserto te encontrei
            F          C
Nunca imaginava ser assim
              G     Dm
O que jamais pensei
           F     G     C
foi ter você perto de mim
   G       Am7           F
o sol queimava minha paz
                C
Quando você chegou,
     G   Am7
Não sabe o bem que me faz
   F      G      C
a sombra desse amor

Refrão:
           G           Dm
Água de oceano, pra beber
 F          G       C
vivo mergulhado em você
     G        Dm
te amo pra valer
 F            G           C  G Am7 F C G Dm F G
lembre-se de não me esquecer
Refrão - Violão 2:

   C             G         Dm
E|---------4-----------3---2---
B|-------2-----------3-----4---
G|-----1-----------1-------3---
D|---3-----------1---------1---
A|-4---------------------------
E|-----------------------------


Solo 2:

E|---------------------------------------------
B|-------------------------2-------------4/6---
G|-----6-6-6/8-8\------3-6-1h3p1-----1h3-------
D|-4/6-6-6---------4/6-----------1h3-----------
A|---------------------------------------------
E|---------------------------------------------


E|------4-4---------------------11/13----------
B|------6-6---4-4----------9/11----------------
G|-4/6--------5-5------6-----------------------
D|-----------------6/8-------------------------
A|---------------------------------------------
E|---------------------------------------------


C                  G           Am7
 Em pleno deserto te encontrei
            F          C
Nunca imaginava ser assim
              G     Dm
O que jamais pensei
           F     G     C
foi ter você perto de mim
   G       Am7           F
o sol queimava minha paz
                C
Quando você chegou,
     G   Am7
Não sabe o bem que me faz
   F      G      C
a sombra desse amor

Refrão 2x:
           G           Dm
Água de oceano, pra beber
 F          G       C
vivo mergulhado em você
     G        Dm
te amo pra valer
 F            G           C  G
lembre-se de não me esquecer

Intro: Am7  C  G
Solo Final:

E|-----------------------------
B|-6-2-6-4---4-----6-2-6-4-----
G|---------1---1-3-------------
D|-----------------------------
A|-----------------------------
E|-----------------------------


E|-----------------------------
B|-6-2-6-4---4-----6-2---------
G|---------1---1-3---------1---
D|---------------------1h3---1-
A|-----------------------------
E|-----------------------------

Acordes para:

    0 comentarios

      mostrar mas comentarios

      ¿Conseguiste tocar?

      70tocaron0aún no

      ¡Grave un vídeo tocando Água de Oceano y envie para nosotros!

      00:00 / 00:00
      outros vídeos desta música
      repetirqualidadeautomática
      Outro vídeos desta música
        00:00 / 00:00
        automática
        Capítulos
        • Início
        • Tocando a música
        • Acordes da música
        • Tocando Introdução e Primeira parte
        • Ensinando ritmo da música
        • Ensinando Solo 1: Violão 2
        • Ensinando Solo Final
        • Tocando refrão
        • Ensinando Refrão: Violão 2
        • Tocando Solo
        • Ensinando Solo 2 (Parte 1)
        • Ensinando Solo 2 (Parte 2)
        • Encerramento
        OK