Cifra Club

Deus e Eu No Sertão

Victor e Leo

Cifrado: Principal (guitarra y guitarra eléctrica)
tono: E (con acordes en la forma de C) Capotraste en 4ª casa
[Intro] C9  Am  A5(9)
        C9  Am  A5(9)

[Tab - Intro]

E|-0-3---0----------------------------------|
B|-----1-----1---1--------------------------|
G|---------2---0-----0----0-----------------|
D|-----------------2---0--------------------|
A|--------------------------2---------------|
E|------------------------------------------|

[Primeira Parte]

C               Am  A5(9)
  Nunca vi ninguém     
C              Am  A5(9)
  Viver tão feliz
 F   G         C  G
Como eu no sertão
C               Am  A5(9)  
  Perto de uma mata     
C               Am  A5(9)
  E de um ribeirão
 F     G         C
Deus e eu no sertão

[Segunda Parte]

Dm             G       
   Casa simplesinha     
C              Am
  Rede pra dormir
Dm                     G                 
   De noite o show no céu          
F
  Deito pra assistir

( C  Am  A5(9) )
( C  Am  A5(9) )

 F     G         C  G
Deus e eu no sertão

[Tab - Riff]

E|------------------------------------------|
B|-----1-1----------------------------------|
G|---0-2-2----------------------------------|
D|-0----------------------------------------|
A|------------------------------------------|
E|------------------------------------------|

[Terceira Parte]

C9                Am  A5(9)     
   Das horas não sei       
C9                Am  A5(9)
   Mas vejo o clarão
 F     G              C  G
Lá vou eu cuidar do chão
C9              Am   A5(9)    
   Trabalho cantando        
C9                     Am  A5(9)
   A terra é a inspiração
 F     G         C
Deus e eu no sertão

[Quarta Parte]

Dm             G    
   Não há solidão      
C                  Am
  Tem festa lá na vila
Dm                  G  
   Depois da missa vou      
F  G           C
  Ver minha menina

Dm               G     
   De volta pra casa      
C                    Am
  Queima lenha no fogão
Dm                    G               
   E junto ao som da mata          
F
  Vou eu e um violão

( C9  Am  A5(9) )
( C9  Am  A5(9) )

 F      G        C  Am        
Deus e eu no sertão           
 F      G            
Deus e eu no sertão 

[Final] C9  Am  A5(9)
        C9  Am  A5(9)
        C9  Am  A5(9)
        C9  Am  A5(9)

[Tab - Solo Final]

E|-0-3---0----------------------0-----------|
B|-----1-----1---1--------------1-----------|
G|---------2---0-----0----0-----0h2---------|
D|-----------------2---0--------0-----------|
A|--------------------------2---3-----------|
E|------------------------------------------|
00:00 / 00:00
Otros videos de esta canción
Repetir
Otros videos de esta canción
Composición de Victor Chaves
Colaboración y revisión:
14.439 vistas
  • Simplificar cifrado
    • ½ Tono
    • A
    • Bb
    • B
    • C
    • Db
    • D
    • Eb
    • E
    • F
    • F#
    • G
    • Ab
  • Agregar a la lista

    0 comentarios

    Ver todos los comentarios

    ¿Lograste tocar?

    380 Tocaron 35 Aún no

    ¡Graba un video tocando Deus e Eu No Sertão y envíanoslo!

    00:00 / 00:00
    Capítulos
    • Início
    • Capotraste
    • Tocando a Música
    • Acordes da Introdução e Primeira Parte
    • Tocando Introdução e Primeira Parte
    • Ensinando Introdução
    • Ensinando o Ritmo da Música
    • Acordes Segunda Parte
    • Tocando Segunda Parte
    • Variação do Ritimo
    • Ensinando Passagem Final
    • Tocando o Final
    • Ensinando a Tab Final
    • Encerramento
    OK