Cifra Club

Aprenda

Então É Natal

Victor e Leo

Tablatura: Principal (guitarra)
tono: D
     A                      Bm
Então é natal, e o que você fez?
         E                   A
O ano termina, e nasce outra vez
          D                Em
Então é natal, a festa Cristã
              A                      D
Do velho e do novo, do amor como um todo
           G                    A
Então bom natal, e um ano novo também
          Em     D/F#  G            D
Que seja feliz quem souber o que é o bem

         A                   Bm
Então é natal, pro enfermo e pro são
              E              A
Pro rico e pro pobre, num só coração
          D                       Em
Então bom natal, pro branco e pro negro
          A                   D
Amarelo e vermelho, pra paz afinal
           G                   A
Então bom natal, e um ano novo também
           Em    D/F#  G               D
Que seja feliz quem, souber o que é o bem

( A  Bm  E )
( A  Bm  E  A )

E|-------------------------------------------|
B|-------------------------------------------|
G|-------2h4-4/6-6~--2h4--4/6/4--2-4~--------|
D|----2h4------------------------------------|
A|-2h4---------------------------------------|
E|-------------------------------------------|
                                                   
E|-----------------------------------------5-|
B|---5--5--------------2-5--5/7/5--2-------2-|
G|-4--4---4---2---2h4-----------------4----2-|
D|----------4-----2h4----------------------2-|
A|-----------------------------------------4-|
E|-----------------------------------------5-|

          D              Em
Então é natal, a festa Cristã
         A                        D
Do velho e do novo, o amor como um todo
           G                   A
Então bom natal, e um ano novo também
           Em    D/F#  G              D
Que seja feliz quem, souber o que é o bem

   A         Bm
Harehama, há quem ama
   E       A
Harehama, ha
   A        Bm         E      A
Hiroshima, Nagasaki, Mururoa, ha
Composição de Victor e Leo part. Banda Malta
Colaboración y revision:
  • joão vitor
  • Filipe
2.203 reproducciones
    • ½ Tono
    • A
    • Bb
    • B
    • C
    • Db
    • D
    • Eb
    • E
    • F
    • F#
    • G
    • Ab
  • Adicionar à lista

    0 comentarios

    Ver todos os comentários

    ¿Conseguiste tocar?

    1 Tocaram 3 Ainda não

    Grave um vídeo tocando Então É Natal e nos envie!

    00:00 / 00:00
    outros vídeos desta música
    repetir qualidade Automático
    Outros vídeos desta música
    00:00 / 00:00
    Automático
    OK