Cifra Club

O Tempo Não Apaga

Victor e Leo

Tablatura: Principal
reproducciones 431
Tono: C
         Am                   C                 G           Am
E|-------1--0-------|-----1----0------|----------------|------0-|
B|----1----------1--|---1--------1----|-------3—0------|--0h1-0-|
G|-2----------------|-0---------------|-----0--------0-|--0h2---|
D|------------------|-----------------|----------------|--0h2---|
A|-0----------------|-3---------------|----------------|--------|
E|------------------|-----------------|-3--------------|--------|

 C                G
Olhando o céu lembrei
      Am                     F
Que tudo que vivemos não passou
              C
E pra dizer mais
     G
Pensei
     Dm                      F
Que temos outra chance de fazer
 G                    F
Nosso sol brilhar em mim
      G
Em você

C                       G
O tempo não apaga não desfaz
Am                              F
O beijo que eu desejo sempre mais
 C                           G
Não posso esquecer o seu olhar no meu
Dm                           F
Eu sei que nosso amor ainda não morreu

         C            G               Dm            F
E|-------0----|--------------|---------0----|--1-0------|
B|--1--1---1--|----0--0-3-0--|----1--1---1--|------3-1--|
G|------------|--0-----------|--2-----------|-----------|

Último Refrão: Aumenta um Tom

D                         A
O tempo não apaga não desfaz
Bm                              G
O beijo que eu desejo sempre mais
 D                                   A
Não posso esquecer o seu olhar no meu
Em                             G
Eu sei que nosso amor ainda não
   D
Morreu.
Acordes para:

    0 comentarios

      mostrar más comentarios

      ¿Conseguiste tocar?

      33tocaron1aún no

      ¡Graba un vídeo tocando O Tempo Não Apaga y envianoslo!

      00:00 / 00:00
      outros vídeos desta música
      repetirqualidadeautomática
      Outro vídeos desta música
        00:00 / 00:00
        automática
        OK