Cifra Club

Antes Mesmo de Acordar

Victor Pradella

Cifrado: Principal (guitarra y guitarra eléctrica)
tono: B (con acordes en la forma de C) Afinación: Eb Ab Db Gb Bb Eb
[Intro]

   Am       G#°      Am7/G       D/F#     
E|-----0-x--0-----0-x--0-----0-x--2-----2-x-2----|
B|-----1-x--3-----3-x--1-----1-x--3-----3-x-3----|
G|-----2-x--4-----4-x--0-----0-x--2-----2-x-2----|
D|---2---x----------x----------x----------x------|
A|-0-----x----------x----------x----------x------|
E|-------x--4---4---x--3---3---x--2---2------2---|

   F         G#°        Am  
E|-1-----1-x----------x--0-----0-x------5--------|
B|-1-----1-x--3-----3-x--1-----1-x-----5---------|
G|-2-----2-x--4-----4-x--2-----2-x----5----------|
D|---------x--3-----3-x----------x---------------|
A|---------x----------x--0---0---x--0------------|
E|-1---1---x--4---4---x----------x---------------|

[Solo]

E|-----------------------------------------------|
B|-----------------------------------------------|
G|-7/5-7/8/7------5-7~~-5~~----------------------|
D|-------------s7-----------7~~---5h7~~-6~~------|
A|-----------------------------------------------|
E|-----------------------------------------------|

E|-5~~~~/8/7~~~~--5------------------------------|
B|-x-----x-x------x------------------------------|
G|-2~~~~/5/4~~~~--2------------------------------|
D|-----------------------------------------------|
A|-----------------------------------------------|
E|-----------------------------------------------|

[Primeira Parte]

Am       G#°    Am7/G        D/F#
   Amanheceu e o dia pareceu desanimar
          F          G#°  Am 
   Antes mesmo de eu acordar
Am    G#°         Am7/G          D/F#
   Me restou tentar acreditar e assim deixar de me enganar
F          G#°                Am 
   Entristecer meu próprio coração
Am   G#°                  Am7/G         D/F#                F
   E tão claro como nos faz mal pensar além daquilo que nos basta 
                   F/G
   Daquilo que nos gasta
Am   G#°            Am7/G             D/F#
   É necessário planejar o amanhã, mas temos que deixar acontecer
F                  G
   Sem tentar entender

[Pré-Refrão]

       F  G
   Os dias
       F  G
    A vida

[Refrão]

F                  G
   Amanhã será de novo 
                              Am
   O que chamamos de mais uma chance
         Am/G      D/F#
   E tudo pode renovar
F                               G
   O que importa é onde está a fé
                             Am
   Essa que fez uma montanha se mover
         Am/G                    D/F#
   Mesmo sendo quase menos que um grão
                      F   G
   Uma semente a plantar
                      F   G  G#°
   Uma semente a plantar

[Primeira Parte]

Am       G#°    Am7/G        D/F#
   Amanheceu e o dia pareceu desanimar
          F          G#°  Am 
   Antes mesmo de eu acordar
Am    G#°         Am7/G          D/F#
   Me restou tentar acreditar e assim deixar de me enganar
F          G#°                Am 
   Entristecer meu próprio coração
Am   G#°                  Am7/G         D/F#                F
   E tão claro como nos faz mal pensar além daquilo que nos basta 
                   F/G
   Daquilo que nos gasta
Am   G#°            Am7/G             D/F#
   É necessário planejar o amanhã, mas temos que deixar acontecer
F                  G
   Sem tentar entender

[Pré-Refrão]

       F  G
   Os dias
       F  G
    A vida

[Refrão]

F                  G
   Amanhã será de novo 
                              Am
   O que chamamos de mais uma chance
         Am/G      D/F#
   E tudo pode renovar
F                               G
   O que importa é onde está a fé
                             Am
   Essa que fez uma montanha se mover
         Am/G                    D/F#
   Mesmo sendo quase menos que um grão

[Refrão Final]

                     F   G
   Uma semente a brotar
                     F   G
   Uma semente a brotar
               F   
Preciso do seu ar
          G        F/A   G/B
Preciso amar aaa         eee   eee

 F  G   F/A   G/B

[Final]

   Am      G#°      Am     G#°      Am   

E|-----0-x------0-----0-x------0------0-x-----5----------|
B|-----1-x-----3------1-x-----3-------1-x----5-----------|
G|-----2-x----4-------2-x----4--------2-x---5------------|
D|---2---x---0----------x---0-----------x----------------|
A|-0-----x----------0---x-----------0---x--0-------------|
E|-------x--4-----------x--4------------x----------------|
Composición de Lucca Diniz / Victor Pradella
Colaboración y revisión:
  • Renan Luiz
1 vistas
    • ½ Tono
    • A
    • Bb
    • B
    • C
    • Db
    • D
    • Eb
    • E
    • F
    • F#
    • G
    • Ab
  • Agregar a la lista

    0 comentarios

    Ver todos los comentarios

    ¿Lograste tocar?

    0 Tocaron 0 Aún no

    ¡Graba un video tocando Antes Mesmo de Acordar y envíanoslo!

    00:00 / 00:00
    Otros videos de esta canción
    Repetir Calidad Automático
    Otros videos de esta canción
    00:00 / 00:00
    Automático
    OK