Cifra Club

Chico de la oculta

Viejas Locas

Cifrado: Principal (guitarra y guitarra eléctrica)
Selo Cifra Club: esta cifra foi revisada para atender aos critérios oficiais da nossa Equipe de Qualidade.
tono: E
intro: (repite en toda la estrofa)

       E 

E|-------0--------|
B|-----0---0------|
G|---1-------1----|
D|-------------2--|
A|----------------|
E|-0--------------|

    E                              A                E 
su padre era un borracho que no podia dejar el alcohol
    E                         A          E 
su madre era muy buena pero nunca la cuido
           A  A 
y esta tirado
           A  A                E 
esta dado vuelta en un zanjon
                 F#                  A          E 
aspirando las pequeñas cosas que la vida no le dio

inter: E 

E|-4--2--0--0h2p0----|----4--3--2--0----|
B|-------------------|------------------|
G|-4--2--1--1--------|-s4-4--3--2--1----|
D|-------------------|------------------|
A|-------------------|------------------|
E|-------------------|------------------|

riff 1                 riff 2       riff 3    riff 4  riff 5 (con slide)

E|--------------------|---------|------------|------|----------------|
B|-------12-----------|---------|------------|------|-----17---------|
G|-11s13----13s11-9---|-----9...|------------|----9-| 16s18--18s16-13-|
D|--------------------|-9-11----| 9/11..-11/9-|9-11--|----------------|
A|--------------------|---------|------------|------|----------------|
E|--------------------|---------|------------|------|----------------|

riff 6 (con slide)      riff 7     riff 8           el riff 7 y 8 hacerlo
                                                    también con “slide”
E|-------------------|----------|-----------------|
B|------17-----------|----------|-----------------|
G|-16s18---18s16-13--|-13s14s13-|-16s14----16s13--| el riff 8= hacerlo
D|-------------------|----------|-----------------| lento siguiendo la
A|-------------------|----------|-----------------| canción..
E|-------------------|----------|-----------------|
                                            riff 1
cuando el era muy pequeño a pocos le importo
                  riff 2    riff 3
procuraba sus alimentos y algún almohadon
riff4 riff 5
para acostarse
           riff 6
y acolchonar su corazón
     riff 7                   riff 8
por la calle de ciudad oculta el camina hoy.


inter: E 

E|-4--2--0--0h2p0----|----4--3--2--0----|
B|-------------------|------------------|
G|-4--2--1--1--------|-s4-4--3--2--1----|
D|-------------------|------------------|
A|-------------------|------------------|
E|-------------------|------------------|

   E5 
y yo, yo
        A5            E5 
yo le dedico este rocanrol

repite la cancion de la misma manera pero mas rapido.

Después del silencio..... hace esto...

                      |Esta parte hacer (pm) |
                      |palm mute... menos m5 |
E|----------------------------------------------------------|
B|----------------------------------------------------------|
G|----------------------------------------------------------|
D|--------2---2---2-2----------------2---2--2-2-------------|
A|--------2---2---2-2-------2-4------2---2--2-2-------2-4---|
E|-12s3-4---4---4-----0-3h4-----0--4---4---4----0-3h4-----0-|
Otros videos de esta canción
    528 exhibiciones
      • ½ Tono
      • A
      • Bb
      • B
      • C
      • Db
      • D
      • Eb
      • E
      • F
      • F#
      • G
      • Ab
    • Agregar a la lista

    Afinación de cifrado

    Afinador online

      OK