Cifra Club

El árbol de la vida

Viejas Locas

Cifrado: Principal (guitarra y guitarra eléctrica)
tono: Em
Intro: Em  D  C  B7 

1era Guitarra (hace arpegio)

E|-------0-------/-------2-------/-------0-------/--------2-------/|
B|-----0---0---0-/-----3---3---3-/-----1---1---1-/------0---0---2-/|
G|---0-------0---/---2-------2---/---0-------0---/----2-------2---/|
D|---------------/-0-------------/---------------/----------------/|
A|-2-------------/---------------/-3-------------/--2-------------/|
E|---------------/---------------/---------------/----------------/|

2da Guitarra

E|--------------------------------------/|
B|--------------------------------------/|
G|--------------------------------------/|
D|---------7-9-10-9-7-------------------/|
A|--7-9-10-------------10-9-7--10-9-7-6-/|
E|--------------------------------------/|

 Em                 D 
Después de tanto vagar por las calles
C              B7 
la ciudad te parece tan gris;
mejor hacerse un viaje al campo y
sentirse libre para poder sentir.

Este mensaje no sera en vano,
cuando entiendas y puedas decir que
en el árbol de la vida
ninguna fruta esta prohibida.

Em    D    C   B7   /esto se toca mas rapido que en los versos/

Em         D 
Aún veo llover en tu mente
C                     B7 
hace unos días que no te sale el sol,
no me gusta verte tan inconciente,
esta en tu mente la liberación.

Quiero que todo salga bien,
te quiero ver triunfando en la vida
todos tenemos esos dias en que
nos estalla el calefón.

Em   D   C  B7 

Em               D 
Arbol de la vida dame hoy
C           B7 
dame hoy tu fruta divina...
00:00 / 00:00
Otros videos de esta canción
Repetir
Otros videos de esta canción
Composición de Cristian Alvarez (Pity) , Pastor Gutierrez y G. Tu
357 exhibiciones
    • ½ Tono
    • Am
    • Bbm
    • Bm
    • Cm
    • C#m
    • Dm
    • Ebm
    • Em
    • Fm
    • F#m
    • Gm
    • G#m
  • Agregar a la lista
    00:00 / 00:00
    OK