Cifra Club

Excusas

Viejas Locas

Cifrado: Principal (guitarra y guitarra eléctrica)
tono: F#m

*BASE *F#5 
E|------------------------|
B|------------------------|
G|------------------------|
D|------------------------|
A|-4-4-4-4-4-4---2-4-2----|
E|-2-2-2-2-2-2-5------5-2-|

*BASE *A5 
E|------------------------|
B|------------------------|
G|------------------------|
D|-2-2-2-2-2-4-4-4-2------|
A|-0-0-0-0-0-0-0-0-0------|
E|------------------------|

Intro:*A5 

*A5 
Por las dudas que seas vos
*F#5                   *A5 
la primera en bajar el pulgar
*A5 
antes me largo yo,porque esperar a ver
*F#5              *A5 
cual es tu desicion?

*D5                     *B5 
Por las dudas como para no quedar
   *A5 
tan perdedor
*D5               *B5 
con alguna excusa tengo que zafar
*D5                  *E5 
tan solo una excusa nada mas

*A5 
Que confundido estoy, que algun tiempo me des
*F#5            *A5 
para pensarlo mejor,
*A5 
o me puedo acusar de no ser yo el merecedor
*F#5             *A5 
de tan buena mujer,

*D5                  *B5                 *A5 
Tengo a mano excusas a fin de evitar el papelon
*D5               *B5 
con alguna excusa, nada mas,
*D5               *E5 
antes que me bajes vos el pulgar
*F#5  (BASE x4)
te lo bajo yo.

*E5                     *B5        *A5 
Si puedo adivinar tu desicion, porque esperar?
*B5 
con tal que no me duermas hoy
*C#5 
antes que vos voy a escapar
*D5                      *E5 
tan solo con excusas nada mas.

1ºG  O: sobre *F#5   *A5 
E|---------------------------------------------------|
B|---------------------------------------------------|
G|---------------------------------------------------|
D|---------------------------------------------------|
A|---------------2-4-2-----------------2-4-2---------|
E|-2-2-2-2-2-2-5-------5-2-2-2-2-2-2-5-------5-2-2/5-|

E|-------------------------|
B|-------------------------|
G|-------------------------|
D|-------------------------|
A|--------------5-7-5------|
E|-5-5-5-5-5-5-8-------8-5-|

E|-------------------------------|
B|-------------------------------|
G|-------------------------------|
D|-------------------------------|
A|-------------------------------|
E|-5-5-8-5-5-8-5-5-8-5-5-8-5-5-8-|

E|---------------------------------------------|
B|---------------------------------------------|
G|---------------------------------------------|
D|---------------------------------------------|
A|---------------2-4~2~------------2-4-2-------|
E|-2-2-2-2-2-2-5-------5~~-2~~-2-5-------5-2---|

E|---------------------------------------5-|
B|-----------------------------------5-8---|
G|-----------------------------5-7^^-------|
D|-----------------------7^-7^-------------|
A|-----------------------------------------|
E|-2/5-5-5-5-5-5-8-5-5-8-------------------|

*B5              *A5 
Para no quedar tan perdedor
*B5                 *A5 
antes de evitar un papelon

2ºG  O: sobre *D5  *B5  *A5 
E|------------------------------------------------------|
B|------------------------------------------------------|
G|-------------------------------------------2-4-4^-4-2-|
D|-----------------4-4-4-2-----------2-4-4-4------------4-|
A|-5-5-5-4-2-2-2-2---------4-2---2-4--------------------|
E|-----------------------------5------------------------|

*D5              *B5 
Con alguna excusa tengo que zafar
*D5               *E5 
antes que me bajes vos el pulgar
*F#5 
te lo bajo yo.

Final: sobre *F#5 

E|-------------------------|
B|-------------------------|
G|-------------------------|
D|-------------------------|
A|---------------2-4-2-----|
E|-2-2-2-2-2-2-5-------5-2-|

E|--------------------------------------------------|
B|--------------------------------------2^----------|
G|----------------------------------2-4----4-2------|
D|-------------------------4^-4^-4^-----------------|
A|--------------------------------------------------|
E|-2-2-5-2-2-5-2-2-5-2-2-5--------------------------|

E|-----------2-4-5-5^-5^-5-4-2---------------|
B|-----2-4-5-------------------5-4-2---------|
G|-2-4-------------------------------4-2-----|
D|---------------------------------------4-2-|
A|-------------------------------------------|
E|-------------------------------------------|

E|----------------------------------|
B|----------------------------------|
G|-2-4^-4^-4^-4^-4^-2~--------------|
D|--------------------4~------------|
A|----------------------------------|
E|----------------------------------|

E|----------------------------------------|
B|----------------------------------------|
G|----------------------------------------|
D|-4-2---------------4-2------------------|
A|-----4-2-------4-4-----4-2-------4-4~~~-|
E|---------5-2-2-2-2---------5-2-2-2-2~~~-|
00:00 / 00:00
Otros videos de esta canción
Repetir
Otros videos de esta canción
Composición de Eve
70 exhibiciones
    • ½ Tono
    • Am
    • Bbm
    • Bm
    • Cm
    • C#m
    • Dm
    • Ebm
    • Em
    • Fm
    • F#m
    • Gm
    • G#m
  • Agregar a la lista
    00:00 / 00:00
    OK