Cifra Club

Ey Nena

Viejas Locas

Cifrado: Principal (guitarra y guitarra eléctrica)
tono: C
   G7  C7  G7          G7  C7 C7  G7         G7   D7   C7
E|-3---3---3-----------3---3--3---3----------3----5--4--3------|
B|-6---5---6-----------6---5--5---6----------6----7--6--5------|
G|-4---3---4-----------4---3--3---4----------4----5--4--3------|
D|-3---5---3-----------3---5--5---3----------3----7--6--5------|
A|-5---3---5----3------5---3--3---5---3------5----5--4--3------|
E|-3-------3--3---6b-3-3----------3-3---6b-3-3-----------------|

   G7    C7    D7    (en esta parte dos rasguidos cada acorde)
E|-3-----3--3--------------------------------------------------|
B|-6--3--5--5--6--3--------------------------------------------|
G|-4--2--3--3--4--5--------------------------------------------|
D|-3--3--5--5--5--4--------------------------------------------|
A|-5--2--3--4--5--5--------------------------------------------|
E|-3-----------------------------------------------------------|

  Intro
E|-------------------------------------------------------------|
B|-------------------------------------------------------------|
G|-5b--5b-5-3--------3-5b-5-3--------3-----3----3-5-5b--3-3v---|
D|------------5--3-5-----------3-3h5-----5----5----------------|
A|-------------------------------------------------------------|
E|-------------------------------------------------------------|

E|-------------------------------------------------------------|
B|----------------------------------------6---------------6----|
G|---------------3b------3b----3-5-3-5b/----5//-p3-----3----5ba|
D|-5p3---3h5---5----5-------5---------------------5-------------|
A|-----5-------------------------------------------------------|
E|-------------------------------------------------------------|

E|--------------------------------|
B|----------------------6---------|
G|-p3---3------3-5-3-5b-----------|
D|----5---5-5---------------5-----|
A|--------------------------------|
E|--------------------------------|

Estrofa

  Ey nena    tengo..                  Ey nena tengo..
E|--------5-------------10-------------------------------------|
B|------------------10b----10b-8----8----------10b---3------3--|
G|-----s5---3v-------------------11----------------------------|
D|-------------------------------------------------------------|
A|-------------------------------------------------------------|
E|-------------------------------------------------------------|

         Limpia nena          mi transpiracion
E|-------------------------------------------------------------|
B|---------------------------------------------------6---------|
G|----5v------------5-4-3-------3---------------3-5b---5ba-p3--|
D|-s5-----------------------3h5---------------5----------------|
A|-------------------------------------------------------------|
E|-------------------------------------------------------------|

           Ey nena             Estoy..
E|-------------------------------------------------------------|
B|------------------13ba-11------------------------------------|
G|---3b---------------------------------------3b---------------|
D|-5----5----------------------------------------5-------------|
A|--------------------------------------3h4h5------------------|
E|-------------------------------------------------------------|

  Ey nena estoy hambriento
E|-------------------------------------------------------------|
B|--------------------------13b-13b--13b-11--------------------|
G|------------------------------------------12-------5-6-6h7---|
D|-------------------------------------------------------------|
A|-------------------------------------------------------------|
E|-------------------------------------------------------------|

  Dame nena       un plato lleno
E|----------------------------------------------|
B|----------13b-11------------------------------|
G|-------------------------------5b-5ba-p3---3--|
D|-----------------------------------------5----|
A|----------------------------------------------|
E|----------------------------------------------|

  primer Solo (3:25)
E|-------------------------------------------------------------|
B|-s3-3-3-2--2--0--0-0-0h2-2-0-----------------------0--s3-3-3-|
G|-s4-4-4-2--2--0--0-0-0h2-2-0--s4-4-4-4-4-4-4-4-4-4-0--s4-4-4-|
D|-------------------------------------------------------------|
A|-------------------------------------------------------------|
E|-------------------------------------------------------------|

E|-------------------------------------------10----------------|
B|-3-3-3-3-3-3-3-0-----------------8-10-10b/----10//-8-8-------|
G|-4-4-4-4-4-4-4-0--5b-5b-5b-3--s9-----------------------------|
D|-------------------------------------------------------------|
A|-------------------------------------------------------------|
E|-------------------------------------------------------------|

E|-----------------------------------------13-------------------|
B|-13b-13b-13b-13b-13b-13ba-p11----11-13b/----13//--11----11b---|
G|------------------------------12---------------------12-----12|
D|--------------------------------------------------------------|
A|--------------------------------------------------------------|
E|--------------------------------------------------------------|

E|------------13----------------5----5------6----------------13-|
B|-11-13-13b/----13//-11---------------------------11-13-13b----|
G|-----------------------12--s5---s5-----s6----s12--------------|
D|--------------------------------------------------------------|
A|--------------------------------------------------------------|
E|--------------------------------------------------------------|

E|------------------------------|
B|------------------------------|
G|-12--------3-5--3b-5v----5v---|
D|---------5--------------------|
A|------------------------------|
E|------------------------------|

  Ey nena            quiero...
E|-------------------------------------------------------------|
B|------------------------------------11-11b--------------8v---|
G|-----------5b-5-3---------------s12--------12--s9-7h8h9------|
D|-------3-5---------------------------------------------------|
A|-------------------------------------------------------------|
E|-------------------------------------------------------------|

  Ey nena         quiero hacerte..
E|-------------------------------------------------------------|
B|-13b-11-----13b-13b-13b--13b-13b-13b-13b-11b-----------------|
G|---------------------------------------------12--------------|
D|-------------------------------------------------------------|
A|-------------------------------------------------------------|
E|-------------------------------------------------------------|

        Duerme nena     trabaje mucho hoy
E|----5--------------------------------------------------------|
B|-------------------------------------------------------------|
G|-s5----------------3h5------------------5b-3b------5b-3--3---|
D|----------------------------------------------5-5------------|
A|-------------------------------------------------------------|
E|-------------------------------------------------------------|

  Segundo solo (4:58)
E|-------------------------------------------13----------------|
B|----8-8-10b-10b-8------11-13b-13b-13b--13b----13b-11---------|
G|-s9----------------s12---------------------------------------|
D|-------------------------------------------------------------|
A|-------------------------------------------------------------|
E|-------------------------------------------------------------|

E|---------------6---------------------------------------------|
B|-3--3--3---------------------3---3h5-------------3h5----3-3--|
G|-3b-3b-3b--5b/---5//-3-3b----3---3h5-3b-3b-3b-3b-3h5---------|
D|--------------------------5----------------------------------|
A|-------------------------------------------------------------|
E|-------------------------------------------------------------|

E|--15s--------------------------------------------------------|
B|--15s---------------------------------------6--------5-3-----|
G|-------5b-5b-3b---------3---3b-------3-5-5b---5p3----5-3-----|
D|----------------5-5---5---5----5---5--------------5----------|
A|-------------------------------------------------------------|
E|-------------------------------------------------------------|

E|----5----5----5-------------------------------------4--3-----|
B|------------------5-3-------------------------------7--6-----|
G|-s5---s5---s5-----5-3-5b-5b-5b-3b--------3-5ba-3----5--4-----|
D|-----------------------------------5---5---------5--4--3-----|
A|----------------------------------------------------6--5-----|
E|----------------------------------------------------4--3-----|
00:00 / 00:00
Otros videos de esta canción
Repetir
Otros videos de esta canción
Composición de Pity Alvarez
32 exhibiciones
    • ½ Tono
    • A
    • Bb
    • B
    • C
    • Db
    • D
    • Eb
    • E
    • F
    • F#
    • G
    • Ab
  • Agregar a la lista
    00:00 / 00:00
    OK