Cifra Club

Intoxicado

Viejas Locas

Cifrado: Principal (guitarra y guitarra eléctrica)
tono: A
INTRO (SE D PITE 2 VECES)
    C5  A5
E|-------------------------|
B|---------------8---------|
G|----5------4/9-9---------|
D|----5--7-----------------|
A|----3--7-----------------|
E|-------5-----------------|

    C5  A5
E|-------------------------|
B|------------8-8-8-8-7-5--|
G|----5-------9-9-9-9-7-5--|
D|----5--7-----------------|
A|----3--7-----------------|
E|-------5-----------------|


C5  A5       A5         A5
      a nadie importa si yo cuido mi flor
C5  As        A5      A5
     yo la protejo contra el viento
C5  A5         A5          A5
     la riego Un poco y la llevo al sol
     y con su fruto

             D5                   A5
intoxicado estoy y por las calles voy---¡
             D5                   A5    ¡ ESTO SE TOCA
                                          EN FORMA DE ROCANROL
intoxicado estoy y por las calles voy---¡

INTRO
(EL TEMA CUANC  SE CANTA ES TOC  IGUAL)

un mezcladito que te va a gustar
con su veneno ella juega
una flor muerta como las demas
y con su fruto

             D5                   A5
intoxicado estas y por las calles vas-----¡
             D5                   A5      ¡ ESTO SE TOCA
                                            EN FORMA DE ROCANROL
intoxicado estas y por las calles vas-----¡

Solo (hay partes q son iguales y hay otras q no,
pero en si esta bien sacado)

E|---------------------------------------------------------------------|
B|-5----55----55----55------5-7-----5-7--------------------------------|
G|---7b----7b----7b----7b---5-7-----5-7--------------------------------|
D|------------------------------5-7------------------------------------|
A|---------------------------------------------------------------------|
E|---------------------------------------------------------------------|

E|---------------------------------------------------------------------|
B|-5---55----55----55---55----------7b-5---------7-----7------7-5------|
G|--7b----7b----7b---7b---------5h7------7-5--5h7---5h7---5h7-----7-5--|
D|--------------------------5h7| …---------------------------------------|
A|---------------------------------------------------------------------|
E|---------------------------------------------------------------------|
BMB OLOGIA: b :estirar,… :silencio, h :ligado descendente
00:00 / 00:00
Otros videos de esta canción
Repetir
Otros videos de esta canción
Composición de Cristian Gabriel Alvarez
176 exhibiciones
    • ½ Tono
    • A
    • Bb
    • B
    • C
    • Db
    • D
    • Eb
    • E
    • F
    • F#
    • G
    • Ab
  • Agregar a la lista
    00:00 / 00:00
    OK