Cifra Club

Legalízenla

Viejas Locas

Cifrado: Principal (guitarra y guitarra eléctrica)
tono: Dm
Intro

  Am            Em            Dm
E|-0--0-------|-------0-----|------1----0h1--1-----1--------|
B|-1----1-----|---------0---|-3--3---3---------3------3-----|
G|-2------2-0-|----0------0-|-2-----------------------2--0--|
D|-2----------|-2-----------|-0-----------------------------|
A|-0----------|-------------|-------------------------------|
E|------------|-------------|-------------------------------|

  Am            Em            Dm
E|----0-------|-------0-----|----1------|-0-0-0---------|
B|------1-----|---------0---|-3----3--3-|-0-0-0---------|
G|-2------2-0-|----0------0-|-2-------2-|-0-0-0---------|
D|-2----------|-2-----------|-0-------0-|-2-2-2---------|
A|-0----------|-------------|-----------|-2-2-2---------|
E|------------|-------------|-----------|-0-0-0---------|


Estrofa (Primera guitarra)

E|-x-x----x-x----x-x------|
B|-x-x----x-x----x-x------|
G|-x-x----x-x----x-x------|
D|------------------------|
A|------------------------|
E|------------------------|


Solo

E|-------7h8-7--------------7h8-7------------------------------|
B|---10--------10-------10--------10-----6-6-6-6--6-6h8p6--5-5-|
G|-9--------------9---9--------------9-------------------------|
D|-------------------------------------------------------------|
A|-------------------------------------------------------------|
E|-------------------------------------------------------------|

E|------7h8-7---------------7h8-7-------|
B|---10--------10-------10--------10----|
G|-9--------------9---9--------------9--|
D|--------------------------------------|
A|--------------------------------------|
E|--------------------------------------|

E|-------------------------------------|
B|--6-6-6-6--6-6h8p6--5-5h6p5--3-3h5p3-|
G|-------------------------------------|
D|-------------------------------------|
A|-------------------------------------|
E|-------------------------------------|

E|----------------------------------------------------------------|
B|----------------------------------------------------------------|
G|-5-5h7p5--4-4h5p4--2-2h4--2-0-0h2--2-4-s5--4-5-s7---5-7s9--7-s10|
D|----------------------------------------------------------------|
A|----------------------------------------------------------------|
E|----------------------------------------------------------------|

E|------7h8-7-------------7h8-7------------------------------|
B|---10-------10-------10-------10----8---6-6-6-6-6s8--8-8-8-|
G|-9-------------9---9-------------9-------------------------|
D|-----------------------------------------------------------|
A|-----------------------------------------------------------|
E|-----------------------------------------------------------|
00:00 / 00:00
Otros videos de esta canción
Repetir
Otros videos de esta canción
Composición de Cristian Gabriel Alvarez Congiu
276 exhibiciones
    • ½ Tono
    • Am
    • Bbm
    • Bm
    • Cm
    • C#m
    • Dm
    • Ebm
    • Em
    • Fm
    • F#m
    • Gm
    • G#m
  • Agregar a la lista
    00:00 / 00:00
    OK