Cifra Club

Lo artesanal

Viejas Locas

Cifrado: Principal (guitarra y guitarra eléctrica)
Selo Cifra Club: esta cifra foi revisada para atender aos critérios oficiais da nossa Equipe de Qualidade.
tono: Gm
E|-------5-6-5------------5-6-5--------------------------|
B|-----6-------6--------6-------6------------------------|
G|-6/7-----------7--6/7-----------7--12/10-10/9-9/7-7/5--|
D|-------------------------------------------------------|
A|-------------------------------------------------------|
E|-------------------------------------------------------|

E|-------5-6-5-----|
B|-----6-------6---|
G|-6/7-----------7-| (2x)
D|-----------------|
A|-----------------|
E|-----------------|

E|-------------------------------------------------------------------------|
B|----------------------6------------------------6-------------------------|
G|-5-h(7)--5h(7)--5h(7)---7--5h(7)--5h(7)--5h(7)---7-5--12/10-10/9-9/7-7/5-| (2x)
D|-------------------------------------------------------------------------|
A|-------------------------------------------------------------------------|
E|-------------------------------------------------------------------------|

E|------------------8------------------------------------------------5/--|
B|------6---6-8-6---8--8-6-6-------------6-8-6-----------2/3-3/1-----6/--|
G|-5h(7)--7-------7-----------7-5-7--5-7--------5/7--4-5---------3/5-7/--|
D|-----------------------------------------------------------------------|
A|-----------------------------------------------------------------------|
E|-----------------------------------------------------------------------|

Dm
Aveces pienso que esa gente tan cool
Gm
No tiene chispa para conquistar
Dm
Si su dinero lo puede comprar
Gm
Ellos se olvidan de lo artesanal
[Riff  2
Dm                    Gm                     Dm                 Gm
Se olvidan de lo artesanal ellos se vana olvidar de lo artesanal

Hoy vino el chico del chalet marron
Tenia unos pesos queria comprar
Algunas drogas para el sabado
Y lo zarpaban una vez mas
Se olvidaba de lo artesanal
Ellos se van a olvidar
De lo artesanal

F        Gm   Bb         C
Pero su galera se moja cuando llueve
F        C  Bb            Gm               Dm
Y a su mujer le hacen la fiesta en un hotel
Otros videos de esta canción
    6.898 exhibiciones
      • ½ Tono
      • Am
      • Bbm
      • Bm
      • Cm
      • C#m
      • Dm
      • Ebm
      • Em
      • Fm
      • F#m
      • Gm
      • G#m
    • Agregar a la lista

    Afinação da cifra

    Afinador online

      Ops (: Contenido disponible solo en portugués.
      OK