Cifra Club

Nena, me gustas asi

Viejas Locas

Cifrado: Principal (guitarra y guitarra eléctrica)
tono: D
E|---------------------------------------------------------------|
B|----------------------------------------------------------8----|
G|------------5--5-7-5-7b----7ba-p5-----5s----------5-7-7b----7b-|
D|------5-6-7-----------------------7-7-------5-6-7--------------|
A|---s7------------------------------------s7--------------------|
E|-5-------------------------------------------------------------|

E|---------------------------------------9----7--5----55---55----|
B|-8----7----------------------------------------5----55---55----|
G|---7b---7ba-5--------------7p5------s9---s7------7b----7b------|
D|---------------7p5---5-6-7-----7-7-----------------------------|
A|-------------------7-------------------------------------------|
E|---------------------------------------------------------------|

E|---------------------------------------------------------------|
B|-8--------5---5-------8----8----8----8-------------------------|
G|-7ba-5----5---5----7b---7b---7b---7b---(| muchas-veces)-7ba-p5---
D|------------7---7--------------------------------------------7-|
A|-------7-------------------------------------------------------|
E|---------------------------------------------------------------|

E|------------------------5-5-8p5-5------------------------------|
B|------5------5-5--5-5---5-5-8p5-5------------------------------|
G|-5----5b-----5-5--5-5-------------7-5--7ba-p5---5----5-7b------|
D|---7-----7------------7-----------------------7----7-----------|
A|---------------------------------------------------------------|
E|---------------------------------------------------------------|

E|--------------------------------------------------7b-7ba-5h7-5-|
B|---------------------------------------------------------------|
G|-7b-7b-7b-7b-7b-7ba-p5------5b-----5-7-7ba-p5------------------|
D|-----------------------7-7------s7------------7-7--------------|
A|---------------------------------------------------------------|
E|---------------------------------------------------------------|

E|-8-------------------------------------------------------------|
B|-8ba--5------------------8-------------------------------------|
G|--------5----------------7ba-7-5-------------------------------|
D|-----------7p5---5-6-7-----------------------------------------|
A|---------------7-----------------------------------------------|
E|---------------------------------------------------------------|
00:00 / 00:00
Otros videos de esta canción
Repetir
Otros videos de esta canción
Composición de El Pity
563 exhibiciones
    • ½ Tono
    • A
    • Bb
    • B
    • C
    • Db
    • D
    • Eb
    • E
    • F
    • F#
    • G
    • Ab
  • Agregar a la lista
    00:00 / 00:00
    OK