Cifra Club

Niños

Viejas Locas

Cifrado: Principal (guitarra y guitarra eléctrica)
tono: G
INTRO

E|----19---------17-19-----19-----------17-19-17---------------|
B|-17----20-17----------20-----17-19-20----------20-19-17------|
G|----------16---14------------------------16------------------|
D|-------------------------------------------------------------|
A|-------------------------------------------------------------|
E|-------------------------------------------------------------|

E|----19---------17-19-----19-----------------17---------------|
B|-------20-17----------20-----17-19-20-19-17----20-19-17v-----|
G|----------16---14--------------------------------------------|
D|-------------------------------------------------------------|
A|-------------------------------------------------------------|
E|-------------------------------------------------------------|
00:00 / 00:00
Otros videos de esta canción
Repetir
Otros videos de esta canción
Composición de Cristian Alvarez
38 exhibiciones
    • ½ Tono
    • A
    • Bb
    • B
    • C
    • Db
    • D
    • Eb
    • E
    • F
    • F#
    • G
    • Ab
  • Agregar a la lista
    00:00 / 00:00
    OK