Cifra Club

No me pienso levantar

Viejas Locas

Cifrado: Principal (guitarra y guitarra eléctrica)
Selo Cifra Club: esta cifra foi revisada para atender aos critérios oficiais da nossa Equipe de Qualidade.
tono: C
      C5               F5                G5               F5*
E|-----------| e|------------     e|----------     e|----------
B|-----------| B|--10-11-10--     B|----------     B|----------
G|-----------| G|---X--X--X--     G|----------     G|----------
D|--10-X-10--| D|--10-10--10-     D|----------     D|----------
A|--10-X-10--| A|--8--8---8--     A|--5-7-5-7-     A|--3-5-3-5-
E|--8--X-8---| E|------------     E|--3-3-3-3-     E|--1-1-1-1-

INTRO:

C5

E|-8-8-8-8-8/--8-8-8-8-8/--8-8-8-8-8-----8-8--------|
B|-8-8-8-8-8/--8-8-8-8-8/--8-8-8-8-8-----8-8------8-|
G|-----------------------------------10b-----10ba-8-|
D|--------------------------------------------------|
A|--------------------------------------------------|
E|--------------------------------------------------|


C5                      F5
El perro esta ladrando por que el timbre esta sonando
C5
Y estoy tan calentito no me pienso levantar
F5
Será algún vecino el que me rompe las pelotas
C5
Será algún amigo o será mi mama
G5
No importa por que igual
F5*                          C5
Porque igual no me pienso levantar

E|-----6----------------------|
B|--6b---6b-4-------------4---|
G|------------5h3---3h4h5---5-|
D|----------------5-----------|
A|----------------------------|
E|----------------------------|

C5                     F5
Las horas van pasando y yo sigo soñando
C5
Hace como dos días que no puedo reaccionar
F5
Después de tantas noches de haber yo trasnochado
C5
Voy a tomarme el lunes para poder descansar
G5                 F5*
No importa por que igual por que igual
                C5
No me pienso levantar

Solo:

  C5           F5          C5                         F5
E|-8-8-8-8-8/--8-8-8-8-8/--8-8-8-8-8-----8-----8-----8-----8--8----11-|
B|-8-8-8-8-8/--8-8-8-8-8/--8-8-8-8-8--------------------------8----8--|
G|-----------------------------------10b---10b---10b---10b----10b-----|
D|--------------------------------------------------------------------|
A|--------------------------------------------------------------------|
E|--------------------------------------------------------------------|

    C5                        G5
E|-----------------------------------------18-------18-18--------|
B|------8-10-8b---------------------16-18b----18b---------18b-16-|
G|-10ba-8-10-8b---------8-----15/17------------------------------|
D|--------------10h8----8-10-------------------------------------|
A|-------------------10------------------------------------------|
E|---------------------------------------------------------------|

         C5
E|---------------|
B|-----------16--|
G|-17h15-17--15--|
D|---------------|
A|---------------|
E|---------------|

C5                      F5
El perro esta ladrando por que el timbre esta sonando
C5
Y estoy tan calentito no me pienso levantar
F5
Será algún amigo el que me rompe las pelotas
C5
Será algún vecino o será mi mama
G5
No importa por que igual
F5*                          C5
Porque igual no me pienso levantar

E|-----6----------------------|
B|--6b---6b-4-------------4---|
G|------------5h3---3h4h5---5-|
D|----------------5-----------|
A|----------------------------|
E|----------------------------|

G5
No importa por que igual
F5*                          C5
Porque igual no me pienso levantar


E|----8----------------------------|
B|-6b---6ba-6-4--6ba-4---6-4-2/4---|
G|---------------------5---------5-|
D|---------------------------------|
A|---------------------------------|
E|---------------------------------|

G5
No importa por que igual
F5*
Porque igual no me pienso levantar
Otros videos de esta canción
    1.921 exhibiciones
      • ½ Tono
      • A
      • Bb
      • B
      • C
      • Db
      • D
      • Eb
      • E
      • F
      • F#
      • G
      • Ab
    • Agregar a la lista

    Afinação da cifra

    Afinador online

      Ops (: Contenido disponible solo en portugués.
      OK