Cifra Club

Todo Sigue Igual

Viejas Locas

Cifrado: Principal (guitarra y guitarra eléctrica)
tono: E
E|-----------------------------------------------------------|
B|------------6----------------------------------------------|
G|-------3-5//---5h-3----3-5--5| <--3---3-------------------3--
D|--3--5-------------5-------------5---3----5p--3---3--5---5-|
A|------------------------------------------------5----------|
E|-----------------------------------------------------------|

E|-6h-3h------------------------------------------------------|
B|------6h-3h------------------6------------------------------|
G|------------5h-3h-0h---3-5//----5h-3---3---------3-5/-3-5---|
D|---------------------5--------------5---5---3-5-------------|
A|------------------------------------------------------------|
E|------------------------------------------------------------|

E|--------------------------6-6-----------------------------6----|
B|--------6-----6-------6---6-6-------------6-----6-------6-6----|
G|---6h-7---6h-7---6h-7-----------8-6---6h7---6h-7---6h-7------8-6|
D|---------------------------------------------------------------|
A|--------------------------------------------------------------|
E|--------------------------------------------------------------|

E|------------------6-------------------------------------------|
B|------------------6-------------8-8-------10-10---------------|
G|-------10-12-10-----8-6----8h-9----10h-11---------------------|
D|-10h-12-------------------------------------------------------|
A|--------------------------------------------------------------|
E



E|--------------------------------------------------------------|
B|---------13---------------------------------------------------|
G|-11-12//----12h-10-----10-12/10------------------------------|
D|------------------12--------------12--------------------------|
A|--------------------------------------------------------------|
E|--------------------------------------------------------------|

Bueno espero que les sirva, suena bastante bien…
seguramente algun error debe tener-..
cualquier cosa manden un mail...saludos
00:00 / 00:00
Otros videos de esta canción
Repetir
Otros videos de esta canción
Composición de Sergio Toloza
1.149 exhibiciones
    • ½ Tono
    • A
    • Bb
    • B
    • C
    • Db
    • D
    • Eb
    • E
    • F
    • F#
    • G
    • Ab
  • Agregar a la lista
    00:00 / 00:00
    OK