Cifra Club

Una vez mas

Viejas Locas

Cifrado: Principal (guitarra y guitarra eléctrica)
tono: E
E|------------/---/-----------/-----/-----------------------/|
B|------------/---/-----------/-----/-----------------------/|
G|-9-8--9-8---/---/-7-6--7-6--/-----/-7-6--7--6--7--6-7-6---/|
D|----9----9--/x2-/----7----7-/-----/----7------7----7----7-/|
A|------------/---/-----------/-----/-----------------------/|
E|------------/---/-----------/-----/-----------------------/|

E|-7-6--7--6--7--6--7--6-7-7/9-/|
B|-----7-----7-----7-----------/|

(1),(2),(1),(3)
(1),(2),(1),(4)

E                           B 
empiezo a preguntarme como puedo hacer
C *m                 A 
para no equivocarme la proxima vez
E                      B 
una y mil veces me vuelvo a preguntar
C *m                         A 
y con la misma piedra vuelvo a tropezar

E   B         A 
    una vez mas

tantos errore que vuelvo a cometer
por mas que lo intente caigo otra vez
aunque to quiera no no lo puedo evitar
en cualquier momento vuelvo a tropezar

E   B         A 
    una vez mas..(2veces)

   B      C#m  B 
E|-7-7--7---9---7-/|
B|-7-7--7---9---7-/|
G|-8-8--8---9---8-/|
D|-9-9--9---11--9-/|
A|-9-9--9---11--9-/|
E|-7-7--7---9---7-/|

A 
se que otra vez meti la pata
B 
pero ya es tarde para retroceder
A 
de nuevo el tiro salio por la culata
F *m
yo se muy bien
E                  A 
de nuevo me equivoque

riff 2 veces
guitarra: (la si)x2
           B   C#m  B 

se que otra vez meti la pata........
guitarra: (fa#m mi la)x4

F#m 
yo se muy bien
E                  A 
de nuevo me equivoque

Bueno el tema es facil, lo unico que se me complica es para
sacar el solo, si lo saco despues lo subo.
Hasta ahi me suena bien si quieren les paso la parte antes del
solo
00:00 / 00:00
Otros videos de esta canción
Repetir
Otros videos de esta canción
Compositor no encontrado.
110 exhibiciones
    • ½ Tono
    • A
    • Bb
    • B
    • C
    • Db
    • D
    • Eb
    • E
    • F
    • F#
    • G
    • Ab
  • Agregar a la lista
    00:00 / 00:00
    OK