Cifra Club

Kesä

Maija Vilkkumaa

Cifrado: Principal (guitarra y guitarra eléctrica)
Selo Cifra Club: esta cifra foi revisada para atender aos critérios oficiais da nossa Equipe de Qualidade.
tono: G#m
E|-------------------------|-------------------------|-------------------------|-------------------------|
B|-------------------------|-------------------------|-------------------------|-------------------------|
G|-------------------------|-------------------------|-------------------------|-------------------------|
D|-------------------------|-------------------------|-------------------------|-------------------------|
A|-4--7--------4-----4--7--|-------4-----4--7--------|-4--7--------4-----4--7--|-------4-----4--7--------|
E|-------6-----------------|-6-----------------6\----|-------6-----------------|-6-----------------6\----| x2


[Verse] (Intro riff is Palm-muted)
    1  &  2  &  3  &  4  &  | 1  &  2  &  3  &  4  &  | 1  &  2  &  3  &  4  &  | 1  &  2  &  3  &  4  &  |
    PM--------------------------------------------|
E|-------------------------|-------------------------|----4--------------------|------------/9-----7-----|
B|-------------------------|-------------------------|-------------------------|------------/9-----7-----|
G|-------------------------|-------------------------|-------4----/8-----6-----|---/6--4-----------------|
D|-------------------------|-------------------------|----------6-/8-----6-----|---/6--4-----------------|
A|----7--------4-----4--7--|-------4-----4--7--------|-------------------------|-------------------------|
E|-------6-----------------|-6-----------------6-----|-------------------------|-------------------------|
          Jo  meidät    kauempaakin                    kuulee

    1  &  2  &  3  &  4  &  | 1  &  2  &  3  &  4  &  | 1  &  2  &  3  &  4  &  | 1  &  2  &  3  &  4  &  |
    PM--------------------------------------------|
E|-------------------------|-------------------------|----4--------------------|------------/9-/9--7-----|
B|-------------------------|-------------------------|-------------------------|------------/9-/9--7-----|
G|-------------------------|-------------------------|-------4----/8-----6-----|---/6--4-----------------|
D|-------------------------|-------------------------|----------6-/8-----6-----|---/6--4-----------------|
A|-4--7--------4-----4--7--|-------4-----4--7--------|-------------------------|-------------------------|
E|-------6-----------------|-6-----------------6-----|-------------------------|-------------------------|
          Ihmiset      kaikenlaista                   luulee                                  Meitä  on 

    1  &  2  &  3  &  4  &  | 1  &  2  &  3  &  4  &  | 1  &  2  &  3  &  4  &  | 1  &  2  &  3  &  4  &  |
    PM--------------------------------------------|
E|-------------------------|-------------------------|----4--------------------|------------/9-----7-----|
B|-------------------------|-------------------------|-------------------------|------------/9-----7-----|
G|-------------------------|-------------------------|-------4----/8-----6-----|---/6--4-----------------|
D|-------------------------|-------------------------|----------6-/8-----6-----|---/6--4-----------------|
A|-4--7--------4-----4--7--|-------4-----4--7--------|-------------------------|-------------------------|
E|-------6-----------------|-6-----------------6-----|-------------------------|-------------------------|
    viis     me raukeina            nojaillaan     seinään     

    1  &  2  &  3  &  4  &  | 1  &  2  &  3  &  4  &  | 1  &  2  &  3  &  4  &  | 1  &  2  &  3  &  4  &  |
    PM--------------------------------------------|
E|-------------------------|-------------------------|----4--------------------|------------/9-----7-----|
B|-------------------------|-------------------------|-------------------------|------------/9-----7-----|
G|-------------------------|-------------------------|-------4----/8-----6-----|---/6--4-----------------|
D|-------------------------|-------------------------|----------6-/8-----6-----|---/6--4-----------------|
A|-4--7--------4-----4--7--|-------4-----4--7--------|-------------------------|-------------------------|
E|-------6-----------------|-6-----------------6-----|-------------------------|-------------------------|
               Kadun        reuna       kasvaa       heinää                                         Kesä
  
[Bridge] (Use Palm-mute)
    1  &  2  &  3  &  4  &  | 1  &  2  &  3  &  4  &  | 1  &  2  &  3  &  4  &  | 1  &  2  &  3  &  4  &  |
E|-12-------12-------12----|-12----------14-12----11-|-12-------12-------12----|-12-------11----------11-|
B|----12-------12-------12-|----12----12-------12----|----12-------12-------12-|----12-------12----12----|
G|-------13-------13-------|-------14----------------|-------14-------14-------|-------11-------11-------|
D|-------------------------|-------------------------|-------------------------|-------------------------|
A|-------------------------|-------------------------|-------------------------|-------------------------|
E|-------------------------|-------------------------|-------------------------|-------------------------|
                    Eikä      mitään    tekemistä                Kaupunki         nöyränä    sylissä

    1  &  2  &  3  &  4  &  | 1  &  2  &  3  &  4  &  | 1  &  2  &  3  &  4  &  | 1  &  2  &  3  &  4  &  |
E|-12-------12-------12----|-12----------14-12----11-|-12-------12-------12----|-12-------11----------11-|
B|----12-------12-------12-|----12----12-------12----|----12-------12-------12-|----12-------12----12----|
G|-------13-------13-------|-------14----------------|-------14-------14-------|-------11-------11-------|
D|-------------------------|-------------------------|-------------------------|-------------------------|
A|-------------------------|-------------------------|-------------------------|-------------------------|
E|-------------------------|-------------------------|-------------------------|-------------------------|
             Sormissa        tuoksuu      tupakka           Sun  nauru    on   vieras   ja  ihana

[Chorus]
    1  &  2  &  3  &  4  &  | 1  &  2  &  3  &  4  &  | 1  &  2  &  3  &  4  &  | 1  &  2  &  3  &  4  &  |
E|-------------------------|-------------------------|-------------------------|-------------------------|
B|-------------------------|-------------------------|-------------------------|-------------------------|
G|-------------------------|-------------------------|-------------------------|-------------------------|
D|-2--2--2-----2-----2--2--|-2-----2-----2--2--2-----|-2--2--2-----2-----2--2--|-2-----2-----2--2--2-----|
A|-2--2--2-----2-----2--2--|-2-----2-----2--2--2-----|-2--2--2-----2-----2--2--|-2-----2-----2--2--2-----|
E|-0--0--0-----0-----0--0--|-0-----0-----0--0--0-----|-0--0--0-----0-----0--0--|-0-----0-----0--0--0-----|
          Kato  mua   kun mä  villinä     värisen             enkä  surua    pelkää       kun tunne  en

    1  &  2  &  3  &  4  &  | 1  &  2  &  3  &  4  &  | 1  &  2  &  3  &  4  &  | 1  &  2  &  3  &  4  &  |
E|-------------------------|-------------------------|-------------------------|-------------------------|
B|-------------------------|-------------------------|-------------------------|-------------------------|
G|-------------------------|-------------------------|-------------------------|-------------------------|
D|-2--2--2-----2-----2--2--|-4-----4-----4--4--4-----|-7--7--7-----7-----7--7--|-9-----9-----9--9--9-----|
A|-2--2--2-----2-----2--2--|-4-----4-----4--4--4-----|-7--7--7-----7-----7--7--|-9-----9-----9--9--9-----|
E|-0--0--0-----0-----0--0--|-2-----2-----2--2--2-----|-5--5--5-----5-----5--5--|-7-----7-----7--7--7-----|
          Oo          miten   suloinen          kesä          Kun se loppuu       jää   vain  pimeä

[Interlude]
    1  &  2  &  3  &  4  &  | 1  &  2  &  3  &  4  &  | 1  &  2  &  3  &  4  &  | 1  &  2  &  3  &  4  &  |
E|-------------------------|-------------------------|-------------------------|-------------------------|
B|-------------------------|-------------------------|-------------------------|-------------------------|
G|-------------------------|-------------------------|-------------------------|-------------------------|
D|-------------------------|-------------------------|-------------------------|-------------------------|
A|-4--7--------4-----4--7--|-------4-----4--7--------|-4--7--------4-----4--7--|-------4-----4--7--------|
E|-------6-----------------|-6-----------------6\----|-------6-----------------|-6-----------------6\----|
                                                                                             Me puhutaan

[Verse]
    1  &  2  &  3  &  4  &  | 1  &  2  &  3  &  4  &  | 1  &  2  &  3  &  4  &  | 1  &  2  &  3  &  4  &  |
    PM--------------------------------------------|
E|-------------------------|-------------------------|----4--------------------|------------/9-----7-----|
B|-------------------------|-------------------------|-------------------------|------------/9-----7-----|
G|-------------------------|-------------------------|-------4----/8-----6-----|---/6--4-----------------|
D|-------------------------|-------------------------|----------6-/8-----6-----|---/6--4-----------------|
A|----7--------4-----4--7--|-------4-----4--7--------|-------------------------|-------------------------|
E|-------6-----------------|-6-----------------6-----|-------------------------|-------------------------|
             et tunne    ei   saa       hukkuu      taitoon                                         Eikä

    1  &  2  &  3  &  4  &  | 1  &  2  &  3  &  4  &  | 1  &  2  &  3  &  4  &  | 1  &  2  &  3  &  4  &  |
    PM--------------------------------------------|                                           .
E|-------------------------|-------------------------|----4--------------------|------------/9-----7-----|
B|-------------------------|-------------------------|-------------------------|------------/9-----7-----|
G|-------------------------|-------------------------|-------4----/8-----6-----|---/6--4-----------------|
D|-------------------------|-------------------------|----------6-/8-----6-----|---/6--4-----------------|
A|-4--7--------4-----4--7--|-------4-----4--7--------|-------------------------|-------------------------|
E|-------6-----------------|-6-----------------6-----|-------------------------|-------------------------|
    teosta    väärää     tee   se        et se on   laiton                                 Eikä   meistä 

    1  &  2  &  3  &  4  &  | 1  &  2  &  3  &  4  &  | 1  &  2  &  3  &  4  &  | 1  &  2  &  3  &  4  &  |
    PM--------------------------------------------|
E|-------------------------|-------------------------|----4--------------------|------------/9-----7-----|
B|-------------------------|-------------------------|-------------------------|------------/9-----7-----|
G|-------------------------|-------------------------|-------4----/8-----6-----|---/6--4-----------------|
D|-------------------------|-------------------------|----------6-/8-----6-----|---/6--4-----------------|
A|-4--7--------4-----4--7--|-------4-----4--7--------|-------------------------|-------------------------|
E|-------6-----------------|-6-----------------6-----|-------------------------|-------------------------|
    tuu       sellaisia                 kuin  nuo   tuolla                                 Jotka

    1  &  2  &  3  &  4  &  | 1  &  2  &  3  &  4  &  | 1  &  2  &  3  &  4  &  | 1  &  2  &  3  &  4  &  |
    PM--------------------------------------------|
E|-------------------------|-------------------------|----4--------------------|------------/9-----7-----|
B|-------------------------|-------------------------|-------------------------|------------/9-----7-----|
G|-------------------------|-------------------------|-------4----/8-----6-----|---/6--4-----------------|
D|-------------------------|-------------------------|----------6-/8-----6-----|---/6--4-----------------|
A|-4--7--------4-----4--7--|-------4-----4--7--------|-------------------------|-------------------------|
E|-------6-----------------|-6-----------------6-----|-------------------------|-------------------------|
              Rientää  töihin            pelkää      kuolla                                          Kesä

[Bridge] (Use Palm-mute) (Guitar 2 leads into Chorus with E5)
    1  &  2  &  3  &  4  &  | 1  &  2  &  3  &  4  &  | 1  &  2  &  3  &  4  &  | 1  &  2  &  3  &  4  &  |
E|-12-------12-------12----|-12----------14-12----11-|-12-------12-------12----|-12-------11----------11-|
B|----12-------12-------12-|----12----12-------12----|----12-------12-------12-|----12-------12----12----|
G|-------13-------13-------|-------14----------------|-------14-------14-------|-------11-------11-------|
D|-------------------------|-------------------------|-------------------------|-------------------------|
A|-------------------------|-------------------------|-------------------------|-------------------------|
E|-------------------------|-------------------------|-------------------------|-------------------------|
                    Eikä      mitään    tekemistä                Kaupunki         nöyränä    sylissä

    1  &  2  &  3  &  4  &  | 1  &  2  &  3  &  4  &  | 1  &  2  &  3  &  4  &  | 1  &  2  &  3  &  4  &  |
E|-12-------12-------12----|-12----------14-12----11-|-12-------12-------12----|-12-------11----------11-|
B|----12-------12-------12-|----12----12-------12----|----12-------12-------12-|----12-------12----12----|
G|-------13-------13-------|-------14----------------|-------14-------14-------|-------11-------11-------|
D|-------------------------|-------------------------|-------------------------|-------------------------|
A|-------------------------|-------------------------|-------------------------|-------------------------|
E|-------------------------|-------------------------|-------------------------|-------------------------|
             Sormissa        tuoksuu      tupakka           Sun  nauru    on   vieras   ja  ihana

[Chorus]
    1  &  2  &  3  &  4  &  | 1  &  2  &  3  &  4  &  | 1  &  2  &  3  &  4  &  | 1  &  2  &  3  &  4  &  |
E|-------------------------|-------------------------|-------------------------|-------------------------|
B|-------------------------|-------------------------|-------------------------|-------------------------|
G|-------------------------|-------------------------|-------------------------|-------------------------|
D|-2--2--2-----2-----2--2--|-2-----2-----2--2--2-----|-2--2--2-----2-----2--2--|-2-----2-----2--2--2-----|
A|-2--2--2-----2-----2--2--|-2-----2-----2--2--2-----|-2--2--2-----2-----2--2--|-2-----2-----2--2--2-----|
E|-0--0--0-----0-----0--0--|-0-----0-----0--0--0-----|-0--0--0-----0-----0--0--|-0-----0-----0--0--0-----|
          Kato  mua   kun mä  villinä     värisen             enkä  surua    pelkää       kun tunne  en

    1  &  2  &  3  &  4  &  | 1  &  2  &  3  &  4  &  | 1  &  2  &  3  &  4  &  | 1  &  2  &  3  &  4  &  |
E|-------------------------|-------------------------|-------------------------|-------------------------|
B|-------------------------|-------------------------|-------------------------|-------------------------|
G|-------------------------|-------------------------|-------------------------|-------------------------|
D|-2--2--2-----2-----2--2--|-4-----4-----4--4--4-----|-7--7--7-----7-----7--7--|-9-----9-----9--9--9-----|
A|-2--2--2-----2-----2--2--|-4-----4-----4--4--4-----|-7--7--7-----7-----7--7--|-9-----9-----9--9--9-----|
E|-0--0--0-----0-----0--0--|-2-----2-----2--2--2-----|-5--5--5-----5-----5--5--|-7-----7-----7--7--7-----|
          Oo          miten   suloinen          kesä          Kun se loppuu       jää   vain  pimeä

[Interlude]
(Guitar 1)
    1  &  2  &  3  &  4  &  | 1  &  2  &  3  &  4  &  | 1  &  2  &  3  &  4  &  | 1  &  2  &  3  &  4  &  |
E|-------------------------|-------------------------|-------------------------|-------------------------|
B|-------------------------|----------------7-----7--|-------------------------|----------------7-----7--|
G|-------6-----------6-----|-------6--------6-----6--|-------6-----------6-----|-------6--------6-----6--|
D|-------------------------|-------------------------|-------------------------|-------------------------|
A|-4--4-----4--4--4-----4--|-4--4-----4--4-----4-----|-4--4-----4--4--4-----4--|-4--4-----4--4-----4-----|
E|-------------------------|-------------------------|-------------------------|-------------------------| x2
 
(Guitar 2) (Use Wah) on repeat
     1  &  2  &  3  &  4  &  | 1  &  2  &  3  &  4  &  | 1  &  2  &  3  &  4  &  | 1  &  2  &  3  &  4  &  |
   N---------------------------------------------------|N------------------------|N---------------------\--|
E|--4-----------------------|-------------------------|-9-----------------------|-12-------------------\--|
B|7b9-----------------------|-------------------------| 12b14--------------------|15b17--------------------|
G|--------------------------|-------------------------|-------------------------|-------------------------|
D|--------------------------|-------------------------|-------------------------|-------------------------|
A|--------------------------|-------------------------|-------------------------|-------------------------|
E|--------------------------|-------------------------|-------------------------|-------------------------|

[Intelude](Play the 2nd row by scraping the strings with your pick)
    1  &  2  &  3  &  4  &  | 1  &  2  &  3  &  4  &  | 1  &  2  &  3  &  4  &  | 1  &  2  &  3  &  4  &  |
E|-------------------------|-------------------------|-------------------------|-------------------------|
B|-------------------------|----------------7-----7--|-------------------------|----------------7-----7--|
G|-------6-----------6-----|-------6--------6-----6--|-------6-----------6-----|-------6--------6-----6--|
D|-------------------------|-------------------------|-------------------------|-------------------------|
A|-4--4-----4--4--4-----4--|-4--4-----4--4-----4-----|-4--4-----4--4--4-----4--|-4--4-----4--4-----4-----|
E|-------------------------|-------------------------|-------------------------|-------------------------|
          Ei       mä en tiennyt      että     sä            muuttuisit                niin     äkkiä

    1  &  2  &  3  &  4  &  | 1  &  2  &  3  &  4  &  | 1  &  2  &  3  &  4  &  | 1  &  2  &  3  &  4  &  |
E|-------------------------|-------------------------|-------------------------|-------------------------|
B|-------------------------|-------------------------|-------------------------|-------------------------|
G|-------------------------|-------------------------|-5--5--5--5--5--5--5--5--|-5--5--5--5--5--5--5--5--|
D|-6--6--6--6--6--6--6--6--|-6--6--6--6--6--6--6--6--|-6--6--6--6--6--6--6--6--|-6--6--6--6--6--6--6--6--|
A|-------------------------|-------------------------|-------------------------|-------------------------|
E|-------------------------|-------------------------|-------------------------|-------------------------|
                   Ja että    muut  katoaisi                               ja että mä en unohtaisi kesää



[Chorus]
    1  &  2  &  3  &  4  &  | 1  &  2  &  3  &  4  &  | 1  &  2  &  3  &  4  &  | 1  &  2  &  3  &  4  &  |
E|-------------------------|-------------------------|-------------------------|-------------------------|
B|-------------------------|-------------------------|-------------------------|-------------------------|
G|-------------------------|-------------------------|-------------------------|-------------------------|
D|-2--2--2-----2-----2--2--|-2-----2-----2--2--2-----|-2--2--2-----2-----2--2--|-2-----2-----2--2--2-----|
A|-2--2--2-----2-----2--2--|-2-----2-----2--2--2-----|-2--2--2-----2-----2--2--|-2-----2-----2--2--2-----|
E|-0--0--0-----0-----0--0--|-0-----0-----0--0--0-----|-0--0--0-----0-----0--0--|-0-----0-----0--0--0-----|
                    Eikä     mitään       tekemistä               kaupunki       nöyränä      sylissä

    1  &  2  &  3  &  4  &  | 1  &  2  &  3  &  4  &  | 1  &  2  &  3  &  4  &  | 1  &  2  &  3  &  4  &  |
E|-------------------------|-------------------------|-------------------------|-------------------------|
B|-------------------------|-------------------------|-------------------------|-------------------------|
G|-------------------------|-------------------------|-------------------------|-------------------------|
D|-2--2--2-----2-----2--2--|-4-----4-----4--4--4-----|-7--7--7-----7-----7--7--|-9-----9-----9--9--9-----|
A|-2--2--2-----2-----2--2--|-4-----4-----4--4--4-----|-7--7--7-----7-----7--7--|-9-----9-----9--9--9-----|
E|-0--0--0-----0-----0--0--|-2-----2-----2--2--2-----|-5--5--5-----5-----5--5--|-7-----7-----7--7--7-----|
            Sormissa         tuoksuu      tupakka             sun nauru on vieras       ja    ihana

    1  &  2  &  3  &  4  &  | 1  &  2  &  3  &  4  &  | 1  &  2  &  3  &  4  &  | 1  &  2  &  3  &  4  &  |
E|-------------------------|-------------------------|-------------------------|-------------------------|
B|-------------------------|-------------------------|-------------------------|-------------------------|
G|-------------------------|-------------------------|-------------------------|-------------------------|
D|-2--2--2-----2-----2--2--|-2-----2-----2--2--2-----|-2--2--2-----2-----2--2--|-2-----2-----2--2--2-----|
A|-2--2--2-----2-----2--2--|-2-----2-----2--2--2-----|-2--2--2-----2-----2--2--|-2-----2-----2--2--2-----|
E|-0--0--0-----0-----0--0--|-0-----0-----0--0--0-----|-0--0--0-----0-----0--0--|-0-----0-----0--0--0-----|
          Kato  mua   kun mä  villinä     värisen             enkä  surua    pelkää       kun tunne  en

    1  &  2  &  3  &  4  &  | 1  &  2  &  3  &  4  &  | 1  &  2  &  3  &  4  &  | 1  &  2  &  3  &  4  &  |
E|-------------------------|-------------------------|-------------------------|-------------------------|
B|-------------------------|-------------------------|-------------------------|-------------------------|
G|-------------------------|-------------------------|-------------------------|-------------------------|
D|-2--2--2-----2-----2--2--|-4-----4-----4--4--4-----|-7--7--7-----7-----7--7--|-9-----9-----9--9--9-----|
A|-2--2--2-----2-----2--2--|-4-----4-----4--4--4-----|-7--7--7-----7-----7--7--|-9-----9-----9--9--9-----|
E|-0--0--0-----0-----0--0--|-2-----2-----2--2--2-----|-5--5--5-----5-----5--5--|-7-----7-----7--7--7-----|
          Oo          miten   suloinen          kesä          Kun se loppuu       jää   vain  pimeä

[Outro]
    1  &  2  &  3  &  4  &  | 1  &  2  &  3  &  4  &  |
E|-------------------------|-------------------------|
B|-------------------------|-------------------------|
G|-------------------------|-------------------------|
D|-------------------------|-------------------------|
A|-4--7--------4-----4--7--|-------------------------|
E|-------6-----------------|-6-----3\----------------|

************************************
| b   Bend
| /   Slide up
| \   Slide down
| PM  Palm mute
| N   Tremolo
| .   Staccato
************************************
Otros videos de esta canción
    11 exhibiciones
      • ½ Tono
      • Am
      • Bbm
      • Bm
      • Cm
      • C#m
      • Dm
      • Ebm
      • Em
      • Fm
      • F#m
      • Gm
      • G#m
    • Agregar a la lista

    Afinación de cifrado

    Afinador online

      OK