Cifra Club

Kristiina

Maija Vilkkumaa

Cifrado: Principal (guitarra y guitarra eléctrica)
Selo Cifra Club: esta cifra foi revisada para atender aos critérios oficiais da nossa Equipe de Qualidade.
tono: A
E|----------------|----------------|----------------|----------------|
B|----------------|-------------(p| edal)-------------|----------------|
G|----------------|--------------^-|----------------|----------------|
D|9--97--755-4-4--| 9--97--755----4-|9--97--755-4-4--|2--022-244-444--|
A|9--97--755-4-4--| 9--97--755-4-4-4|9--97--755-4-4--|2--022-244-444--|
E|9--97--755-4-4--| 9--97--755-4-4-4|9--97--755-4-4--|2--022-244-444--|
.|1...2...3...4...|1...2...3...4...|1...2...3...4...|1...2...3...4...|<-rhythm in
                                                                     1/16 notes
B-part
  taputtaa...      kauniskin...            kauniskin aina...
E|----------------|----------------|----------------|
B|----------------|----------------|----------------|
G|----------------|----------------|----------------|
D|33---3-133------| 33---3-133-3-1-3|44-3-1-144-4-4-4|
A|33---3-133------| 33---3-133-3-1-3|44-3-1-144-4-4-4|
E|33---3-133------| 33---3-133-3-1-3|44-3-1-144-4-4-4|
.|1...2...3...4...|1...2...3...4...|1...2...3...4...|

C-part/verse
            mitään paina...         paina...         on metri...
E|----------------|----------------|----------------|----------------|
B|---5-------5----|---5-------5----|---9-------9----|---2------------|
G|-----6-6-----6-6|-----6-6-----6-6|-----9-9-----9-9|-----2-244444---|
D|--6---6---6---6-|--6---6---6---6-|--9---9---9---9-|--2---2-44444---|
A|4-------4-------| 4-------4-------|7-------7-------|0-------22222---|
E|----------------|----------------|----------------|----------------|
.|1...2...3...4...|1...2...3...4...|1...2...3...4...|1...2...3...4...|

Verse

 vaatteet...       vaatteet...      vaatteet...      on joka päivä...
E|----------------|----------------|----------------|----------------|
B|----------------|----------------|----------------|----------------|
G|----555522227777|----555522227777|----------------|----------------|
D|2222555522227777|2222555522227777|5555000022222222|5555555577777777|
A|2222333300005555|2222333300005555|5555000022222222|3333333355555555|
E|2222------------| 2222------------|5555000022222222|----------------|
.|1...2...3...4...|1...2...3...4...|1...2...3...4...|1...2...3...4...|



H5 A5 G5 F#5
Jos haluat mennä niin älä mee
H5 A5 G5 F#5
jos syöt älä syö jos on pakko syö pahaa
H5 A5 G5 F#5
kun mieli on huono sielu syvenee
E5 D5 E5 F#5
näin Kristiina puhuu

-||-
Jos joku sua kehuu se valehtelee
se tekee mitä vaan kun se haluaa rahaa
älä lainaa sille älä velkaa tee
näin Kristiina puhuu

F5 F5      F5 D#5 F5 F5
Ja yleisö taputtaa huutaa
F5 F5      F5 D#5 F5 F5
"Krisse eduskuntaan!"
F#5 F5 F#5 D#5 F#5 F5 D#5 
hän on niin kauniskin kauniskin aina

C#m
Eikä hän mitään paina
ei juuri mitään paina
E
jos vertaa hänen pituuteensa
A H
joka on metrikahdeksankuus
E5 C5 A5 D5
ja mitkä vaatteet
hänel on ihanat vaatteet
oi miten ihanat vaatteet
G5 D5 E5 E5
ja kaulassa silkkihuivi
      C5
ja se on joka päivä uus
D5
joka päivä uus

H5 A5 G5 F#5 etc..
Jos haluat tulla niin älä tuu
jos juot ota kulaus ja jätä se sikseen
vain sivistymättömät vapautuu
näin Kristiina puhuu

Jos oot jotain mieltä sulje sun suu
niitäkin on jotka puhuvat ammatikseen
viisas tottuu ja sopeutuu
näin Kristiina puhuu
Otros videos de esta canción
    3 exhibiciones
      • ½ Tono
      • A
      • Bb
      • B
      • C
      • Db
      • D
      • Eb
      • E
      • F
      • F#
      • G
      • Ab
    • Agregar a la lista

    Afinación de cifrado

    Afinador online

      OK