Cifra Club

YMCA

Village People

Tab de bajo: Principal
Selo Cifra Club: esta cifra foi revisada para atender aos critérios oficiais da nossa Equipe de Qualidade.
tono: Afinación:
[Introdução]

G|----------------------------------------------|
D|----------------------------------------------|
A|--4--------4--------4-------------------------|
E|----------------------------------------------|

[Primeira Parte]

G|-------------------------------------2---3----|
D|----------------------------------------------|
A|---------------------6-6-6-6--6-6\-0---1------|
E|--2-2-2-2--2-2-2-2/---------------------------|

G|----------------------------------------------|
D|--------------------3--1----------------------|
A|--2-2-2-2--2-2-2-2--------4--2--1-------------|
E|----------------------------------4-----------|

G|-------------------------------------2---3----|
D|----------------------------------------------|
A|-----------------1/--6-6-6-6--6-6\-0---1------|
E|--2-2-2-2--2-2-2------------------------------|

G|----------------------------------------------|
D|--------------------3--1----------------------|
A|--2-2-2-2--2-2-2-2--------4--2--1-------------|
E|----------------------------------4-----------|

G|----------------------------------------------|
D|----------------------------------------------|
A|--4-4-4-4--4/----16\--------------------------|
E|----------------------------------------------|

[Refrão]

G|----------------------------------------6---7-|
D|----4-4----4----4-4----4----4-4----4----------|
A|--------------------------------------4---5---|
E|--2-----2-----2-----2-----2-----2-------------|

G|----8-8----8----8-8----8----8-8----8\---------|
D|----------------------------------------4---5-|
A|--6-----6-----6-----6-----6-----6-------------|
E|--------------------------------------2---3---|

G|----------------------------------------------|
D|----6-6---6---6-6---6---6-6---6---6-6---6-----|
A|----------------------------------------------|
E|--4-----4---4-----4---4-----4---4-----4-------|

G|----6-6----6----6-6----6----6-6----6----------|
D|----------------------------------------2---3-|
A|--4-----4-----4-----4-----4-----4-------------|
E|--------------------------------------0---1---|

G|----------------------------------------6---7-|
D|----4-4----4----4-4----4----4-4----4----------|
A|--------------------------------------4---5---|
E|--2-----2-----2-----2-----2-----2-------------|

G|----8-8----8----8-8----8----8-8----8\---------|
D|----------------------------------------4---5-|
A|--6-----6-----6-----6-----6-----6-------------|
E|--------------------------------------2---3---|

G|----------------------------------------------|
D|----6-6---6---6-6---6---6-6---6---6\----------|
A|--------------------------------------2-3-----|
E|--4-----4---4-----4---4-----4---4-------------|

G|----6-6----6----6-6----6----6-6----6-----6----|
D|----------------------------------------------|
A|--4-----4-----4-----4-----4-----4-----4-----4-|
E|----------------------------------------------|

[Segunda Parte]

G|-------------------------------------2---3----|
D|----------------------------------------------|
A|---------------------6-6-6-6--6-6\-0---1------|
E|--2-2-2-2--2-2-2-2/---------------------------|

G|----------------------------------------------|
D|--------------------3--1----------------------|
A|--2-2-2-2--2-2-2-2--------4--2--1-------------|
E|----------------------------------4-----------|

G|-------------------------------------2---3----|
D|----------------------------------------------|
A|---------------------6-6-6-6--6-6\-0---1------|
E|--2-2-2-2--2-2-2-2/---------------------------|

G|----------------------------------------------|
D|--------------------3--1----------------------|
A|--2-2-2-2--2-2-2-2--------4--2--1-------------|
E|----------------------------------4-----------|

G|----------------------------------------------|
D|----------------------------------------------|
A|--4-4-4-4--4/----16\--------------------------|
E|----------------------------------------------|

[Refrão]

G|----------------------------------------6---7-|
D|----4-4----4----4-4----4-----4-----4----------|
A|--------------------------------------4---5---|
E|--2-----2-----2-----2-----2-----2-------------|

G|----8-8----8----8-8----8----8-8----8\---------|
D|----------------------------------------4---5-|
A|--6-----6-----6-----6-----6-----6-------------|
E|--------------------------------------2---3---|

G|----------------------------------------------|
D|----6-6---6---6-6---6---6-6---6---6-6---6-----|
A|----------------------------------------------|
E|--4-----4---4-----4---4-----4---4-----4-------|

G|----6-6----6----6-6----6----6-6----6----------|
D|----------------------------------------2---3-|
A|--4-----4-----4-----4-----4-----4-------------|
E|--------------------------------------0---1---|

G|----------------------------------------6---7-|
D|----4-4----4----4-4----4----4-4----4----------|
A|--------------------------------------4---5---|
E|--2-----2-----2-----2-----2-----2-------------|

G|----8-8----8----8-8----8----8-8----8\---------|
D|----------------------------------------4---5-|
A|--6-----6-----6-----6-----6-----6-------------|
E|--------------------------------------2---3---|

G|----------------------------------------------|
D|----6-6---6---6-6---6---6-6---6---6-6---6-----|
A|----------------------------------------------|
E|--4-----4---4-----4---4-----4---4-----4-------|

G|----6-6----6----6-6----6----6-6----6----6-6---|
D|----------------------------------------------|
A|--4-----4-----4-----4-----4-----4-----4-----4-|
E|----------------------------------------------|

[Terceira Parte]

G|-------------------------------------2---3----|
D|----------------------------------------------|
A|---------------------6-6-6-6--6-6\-0---1------|
E|--2-2-2-2--2-2-2-2/---------------------------|

G|----------------------------------------------|
D|--------------------3--1----------------------|
A|--2-2-2-2--2-2-2-2--------4--2--1-------------|
E|----------------------------------4-----------|

G|-------------------------------------2---3----|
D|----------------------------------------------|
A|-----------------1/--6-6-6-6--6-6\-0---1------|
E|--2-2-2-2--2-2-2------------------------------|

G|----------------------------------------------|
D|--------------------3--1----------------------|
A|--2-2-2-2--2-2-2-2--------4--2--1-------------|
E|----------------------------------4-----------|

G|----------------------------------------------|
D|----------------------------------------------|
A|--4-4-4-4--4/----16\--------------------------|
E|----------------------------------------------|

[Refrão]

G|----------------------------------------6---7-|
D|----4-4----4----4-4----4----4-4----4----------|
A|--------------------------------------4---5---|
E|--2-----2-----2-----2-----2-----2-------------|

G|----8-8----8----8-8----8----8-8----8\---------|
D|----------------------------------------4---5-|
A|--6-----6-----6-----6-----6-----6-------------|
E|--------------------------------------2---3---|

G|----------------------------------------------|
D|----6-6---6---6-6---6---6-6---6---6-6---6-----|
A|----------------------------------------------|
E|--4-----4---4-----4---4-----4---4-----4-------|

G|----6-6----6----6-6----6----6-6----6----------|
D|----------------------------------------2---3-|
A|--4-----4-----4-----4-----4-----4-------------|
E|--------------------------------------0---1---|

G|----------------------------------------6---7-|
D|----4-4----4----4-4----4----4-4----4----------|
A|--------------------------------------4---5---|
E|--2-----2-----2-----2-----2-----2-------------|

G|----8-8----8----8-8----8----8-8----8\---------|
D|----------------------------------------4---5-|
A|--6-----6-----6-----6-----6-----6-------------|
E|--------------------------------------2---3---|

G|----------------------------------------------|
D|----6-6---6---6-6---6---6-6---6---6-6---6-----|
A|----------------------------------------------|
E|--4-----4---4-----4---4-----4---4-----4-------|

G|----6-6----6----6-6----6-----6----------------|
D|--------------------------------------2---3---|
A|--4-----4-----4-----4-----4-----4-------------|
E|------------------------------------0---1-----|

G|----------------------------------------6---7-|
D|----4-4----4----4-4----4----4-4----4----------|
A|--------------------------------------4---5---|
E|--2-----2-----2-----2-----2-----2-------------|

G|----8-8----8----8-8----8----8-8----8\---------|
D|----------------------------------------4---5-|
A|--6-----6-----6-----6-----6-----6-------------|
E|--------------------------------------2---3---|

G|----------------------------------------------|
D|----6-6---6---6-6---6---6-6---6---6-6---6-----|
A|----------------------------------------------|
E|--4-----4---4-----4---4-----4---4-----4-------|

G|----6-6----6----6-6----6----6-6----6----------|
D|----------------------------------------2---3-|
A|--4-----4-----4-----4-----4-----4-------------|
E|--------------------------------------0---1---|

G|----------------------------------------6---7-|
D|----4-4----4----4-4----4----4-4----4----------|
A|--------------------------------------4---5---|
E|--2-----2-----2-----2-----2-----2-------------|

G|----8-8----8----8-8----8----8-8----8\---------|
D|----------------------------------------4---5-|
A|--6-----6-----6-----6-----6-----6-------------|
E|--------------------------------------2---3---|

G|----------------------------------------------|
D|----6-6---6---6-6---6---6-6---6---6-6---6-----|
A|----------------------------------------------|
E|--4-----4---4-----4---4-----4---4-----4-------|

G|----6-6----6----6-6----6----6-6----6----------|
D|----------------------------------------2---3-|
A|--4-----4-----4-----4-----4-----4-------------|
E|--------------------------------------0---1---|
Otros videos de esta canción
    9.121 exhibiciones

    Afinación de cifrado

    Afinador online

    Capítulos
    • Apresentação e Dicas Iniciais
    • Tocando a Música
    • Dicas de Digitação
    • Encerramento
    OK