Cifra Club

Angeles cantando están

Villancicos

Cifrado: Principal (guitarra y guitarra eléctrica)
tono: D
   D          A7       D             A7     D
I: Ángeles cantando están tan dulcísima canción
 D           A7      D               A7    D
Las montañas su eco dan como fiel contestación

       D  B7 Em A7  D G Asus4 A  D  A  D G  D   A
Coro: Glo-ooooo-ooooo-ooooo-ria, en lo alto Gloria
 D  B7 Em A7  D G Asus4 A  D  A  D G  D   A     D
Glo-ooooo-ooooo-ooooo-ria, en lo alto Gloria a Dios

     D           A7     D             A7     D
II: Los pastores sin cesar sus loores dan a Dios
 D               A7     D             A7    D
Cuan glorioso es el cantar de su melodiosa voz

      D            A7     D                   A7    D
III: Hoy anuncian con fervor que ha nacido el Salvador
 D           A7   D              A7    D
Los mortales gozarán paz y buena voluntad

     D               A7    D              A7      D
IV: ¡Oh, venid pronto a Belén para contemplar con fe
D           A7      D                A7    D
A Jesús, Autor del bien, al recién nacido Rey!

Este INTRO está en G, mientras el resto de la canción está en D.
Es que tuve pereza para traspasarle:

e||-----------------|-----------|--------------|------------|
B||------------1----|--1--------|-----------1--|------------|
G||o--2--2--2-------|-----3--2--|--2--0--2-----|--2--0-----o|
D||o----------------|-----------|--------------|--------3--o|
A||-----------------|-----------|--------------|------------|
E||-----------------|-----------|--------------|------------|

E|------------------|-----------------|------------------|-----------|
B|---1--3--1--------|-----1-----------|------------------|-----------|
G|o-----------3--2--|--3-----3--2--0--|--2---3--2--0-----|--0--------|
D|o-----------------|-----------------|---------------3--|-----------|
A|------------------|-----------------|------------------|-----3--3--|
E|------------------|-----------------|------------------|-----------|

                                Para terminar:
E|------------------|---------| |-------------||
B|------------------|---------| |-------------||
G|-----0--2----3----|--2--0--o| |-------------||
D|--3---------------|--------o| |-----3-------||
A|------------------|---------| |-------------||
E|------------------|---------| |-------------||
00:00 / 00:00
Otros videos de esta canción
Repetir
Otros videos de esta canción
Compositor no encontrado.
18 vistas
    • ½ Tono
    • A
    • Bb
    • B
    • C
    • Db
    • D
    • Eb
    • E
    • F
    • F#
    • G
    • Ab
  • Agregar a la lista

    0 comentarios

    Ver todos los comentarios

    ¿Lograste tocar?

    0 Tocaron 0 Aún no

    ¡Graba un video tocando Angeles cantando están y envíanoslo!

    00:00 / 00:00
    OK