Cifra Club

Blanca Navidad

Villancicos

Cifrado: Principal (guitarra y guitarra eléctrica)
Acompaña nuestras novedades de Cifra Club en español.
¡Sigue nuestro perfil en Instagram!
tono: C
 C             Dm      G
Oh, blanca Navidad, sueño,
 F          G            C     G
y con la nieve en derredor,
          C      C7
Blanca es mi quimera,
   F       Fm        C  D7          G
y es mensajera, de paz, y de puro amor.

C             Dm      G
Oh, blanca Navidad, nieve,
F          G            C      G
un blanco sueño y un cantar,
      C                  F     Fm
Recordar tu infancia podrás,
      C        Dm        G
al llegar la blanca navidad.


Intermedio: ( C Dm G F G C G    C C7 F Fm C D7 G )

|----------------|----------------|--5--7-8-10--8--|7--5-3----3---4-|
|--5----6-5-4-5--|-6----7-8-------|----------------|----------------|
|----------------|----------------|----------------|----------------|
|----------------|----------------|----------------|----------------|
|----------------|----------------|----------------|----------------|
|----------------|----------------|----------------|----------------|

|-------0--0--0--|5--3--8---8-----|-0--0--5--3--1--|----------------|
|-1--3-----------|-------------1-3|----------------|3--1------------|
|----------------|----------------|----------------|----------------|
|----------------|----------------|----------------|----------------|
|----------------|----------------|----------------|----------------|
|----------------|----------------|----------------|----------------|
Composición de Irving Berlin
Colaboración y revisión:
  • Vanessa Robles
1.853 vistas
    • ½ Tono
    • A
    • Bb
    • B
    • C
    • Db
    • D
    • Eb
    • E
    • F
    • F#
    • G
    • Ab
  • Agregar a la lista

    0 comentarios

    Ver todos los comentarios

    ¿Lograste tocar?

    0 Tocaron 0 Aún no

    ¡Graba un video tocando Blanca Navidad y envíanoslo!

    00:00 / 00:00
    Outros vídeos desta música
    Repetir Calidad Automático
    Outros vídeos desta música
    00:00 / 00:00
    Automático
    OK