Cifra Club

Feliz Navidad

Villancicos

Cifrado: Principal (guitarra y guitarra eléctrica)
tono: D
INTRO:

E|--0-5-4-5----|--5-7-5--------|
B|----------7--|--------7-5----|
G|-------------|---------------|
D|-------------|---------------|
A|-------------|---------------|
E|-------------|---------------|

E|--0-5-4-5----|---------------|
B|----------7--|------7--------|
G|-------------|--7-9---9-9----|
D|-------------|---------------|
A|-------------|---------------|
E|-------------|---------------|

E|-------------|
B|-------------|
G|--9-7--7-6---|
D|-------------|
A|-------------|
E|-------------|


CORO:
          G      A7 
Feliz Navidad.
          D      Bm 
Feliz Navidad.
          G             A7          D 
Feliz Navidad, próspero año y felicidad.
(bis)


ESTROF  1:
                 G                A7 
A todos quiero desearles siempre
                 D              Bm 
Felicidades y un gran presente
                 G  
Es el momento de que gocemos
      A7              D 
Mucha paz vengan a cantar.


(Coro)


ESTROF  2:
                  G            A7 
Vivan contentos vivan felices
                 D             Bm 
En el amor dulce sentimiento
                  G  
Cantando voy para que me escuchen
       A7                D 
Vienen tiempos de amor y paz.
Composición de José Feliciano
365 vistas
    • ½ Tono
    • A
    • Bb
    • B
    • C
    • Db
    • D
    • Eb
    • E
    • F
    • F#
    • G
    • Ab
  • Agregar a la lista

    0 comentarios

    Ver todos los comentarios

    ¿Lograste tocar?

    0 Tocaron 0 Aún no

    ¡Graba un video tocando Feliz Navidad y envíanoslo!

    00:00 / 00:00
    Outros vídeos desta música
    Repetir Calidad Automático
    Outros vídeos desta música
    00:00 / 00:00
    Automático
    OK