Cifra Club

Los Campanilleros

Villancicos

Cifrado: Principal (guitarra y guitarra eléctrica)
tono: Cm
INTRO

E|----10/7----------7-10-8-7-8-10-|-11--8------------8-11-10-8----------|
B|---------8------8---------------|-------8--------8--------------------|
G|-----------7-10-----------------|-0-------8----8----------------------|
D|-0------------------------------|-----------10------------------------|
A|--------------------------------|-------------------------------------|
E|--------------------------------|-------------------------------------|

E|----10/7----------7-10-8-7-8-10-|--11--11--11---11--------------------|
B|---------8------8---------------|------8---8----8---------------------|
G|-----------7-10-----------------|------8---8----8---------------------|
D|-0------------------------------|------8---8----8---------------------|
A|--------------------------------|-------------------------------------|
E|--------------------------------|-------------------------------------|

E|------------------6-------------|-8-8-10-8-11-10-8--------------------|
B|--8---9-8-7-8-9-8---9-8---------|--8---------------11-9-9/8-----------|
G|----0-------------------10-8-7--|-------------------------------------|
D|------------------------------10|-------------------------------------|
A|--------------------------------|-------------------------------------|
E|--------------------------------|-------------------------------------|

E|-------------6--------------10--10|-----------------------------------|
B|---8-7-8-9-8---9-8---------8----7-|-----------9-8-11-9-8--------------|
G|-0-----------------10-8-10------7-|---10-9-10------------10-8-7-------|
D|--------------------------------7-|-----------------------------10----|
A|----------------------------------|-8---------------------------------|
E|----------------------------------|-----------------------------------|

E|-8---8-10-8-11-10-8-------------|-------------6---------------7---7---|
B|---8----------------11-9-9/8----|---8-7-8-9-8---9-8---------------7---|
G|--------------------------------|-0-----------------10-8-7--------7---|
D|--------------------------------|--------------------------10-----10--|
A|--------------------------------|---------------------------------10--|
E|--------------------------------|---------------------------------7---|


Cm 
hayyyy.... en los pueblos.................

             Cm            G7  
en los pueblos de mi Andalucía
                  Ab        A#          Eb 
los campanilleros por la madrugá
            C7                           Fm 
me despiertan con sus campanillas
                   Ab          G7        Cm 
y con las guitarras me hacen llorar
        A#           Eb 
y empiezo a cantar
           C7                   Fm 
y a sentirme to los pajarillos
      Ab            G7                     Cm 
cantando en la rama y echan a volar


E|-----------6-4-----4-----|-----------4-3-----3-----|
B|-6---6---6-----8-6---6---|-4---4---4-----6-4---4---|
G|---5---5---------------5-|---5---5---------------4-|
D|-------------------------|-------------------------|
A|-------------------------|-------------------------|
E|-------------------------|-------------------------|

E|-----------3---------------3--3-|
B|-3---3---3---6-4-3-------4----4-|
G|---4---4-----------5-4-5------5-|
D|------------------------------5-|
A|------------------------------3-|
E|------------------------------3-|


Cm ...........
toa las flores........................
           Cm                      G7  
toa las flores del campo andaluz
               Ab         A#     Eb 
al rayar el día llena el rocio
          C7                            Fm 
lloran penas que yo estoy pasando
                       Ab      G7       Cm 
desde el primer día que te conocio.
    A#             Eb 
porque en tu querer,
         C7                        Fm 
tengo puestos los cinco sentios
                Ab      G7          Cm 
y me vuelvo loca sin poderte ver


E|---8-10-8-7-8-|-------------------|---8-10-8-7-8--|-------------------|
B|--------------|------------9-8/13-|---------------|---8------8--------|
G|--------------|---10----10--------|---------------|--------8----------|
D|--------------|------11-----------|---------------|-----10------------|
A|--------------|-8-----------------|---------------|-------------------|
E|-8------------|-------------------|-8-------------|-8-----------------|

E|---3-2-3-4-3--|---1--------3--|---1-3-1-4-3--|------------------------|
B|--------------|--------3/6----|--------------|---8------8-------------|
G|--------------|------4--------|--------------|--------8---------------|
D|--------------|---------------|--------------|-----10-----------------|
A|--------------|---------------|--------------|------------------------|
E|-3------------|-3-------------|-3------------|-8----------------------|

E|---8-10-8-7-8--|-------------------|---8-10-8-7-8-|-------------------|
B|---------------|------------9-8/13-|--------------|---8------8--------|
G|---------------|---10----10--------|--------------|--------8----------|
D|---------------|------11-----------|--------------|-----10------------|
A|---------------|-8-----------------|--------------|-------------------|
E|-8-------------|-------------------|-8------------|-8-----------------|

E|---3-2-3-4-3-1-----10-7-3-4-3-2-1---------3--3------------------------|
B|---------------4-3----------------4-3---4----4------------------------|
G|--------------------------------------5------5------------------------|
D|---------------------------------------------5------------------------|
A|---------------------------------------------3------------------------|
E|-3-------------------------------------------3------------------------|


Cm .........
pajarilloss..................... ..... ...

      Cm                            G7  
pajarillos que estais en el campo
                 Ab      A#       Eb 
gozando el amor y la libertad
         C7                       Fm 
recordarle al hombre que quiero
                       Ab      G7       Cm 
que venga a mi reja por la madrugá
       A#      Eb 
que mi corazón
           C7                            Fm 
se lo entrego al momento que llege
                   Ab            G7          Cm 
cantando las penas que he pasado yo.... ayyyyy
00:00 / 00:00
Otros videos de esta canción
Repetir
Otros videos de esta canción
Composición de Francisco Jimenez
36 vistas
    • ½ Tono
    • Am
    • Bbm
    • Bm
    • Cm
    • C#m
    • Dm
    • Ebm
    • Em
    • Fm
    • F#m
    • Gm
    • G#m
  • Agregar a la lista

    0 comentarios

    Ver todos los comentarios

    ¿Lograste tocar?

    0 Tocaron 0 Aún no

    ¡Graba un video tocando Los Campanilleros y envíanoslo!

    00:00 / 00:00
    OK