Cifra Club

Marchemos a Belén

Villancicos

Cifrado: Principal (guitarra y guitarra eléctrica)
tono: E
E|------------4---4-5-4---------------------4---------|
B|-5-5---5-7----7-------7--5-5--4----4-5-7----4-------|
G|-----4----4----------------------6------------6--4-4|
D|----------------------------------------------------|
A|----------------------------------------------------|
E|----------------------------------------------------|

E|--7-5-4-5-4---4-------------------------------------|
B|------------7---5-7-4------5-5-4-5-7-5--------------|
G|----------------------6-4--------------6------------|
D|----------------------------------------------------|
A|----------------------------------------------------|
E|----------------------------------------------------|

E|-4-4---4-5-4---4-5-4---------5-4--------------------|
B|-----7-------7-------7-5-4-5-----7-5-5--------------|
G|----------------------------------------------------|
D|----------------------------------------------------|
A|----------------------------------------------------|
E|----------------------------------------------------|
00:00 / 00:00
Otros videos de esta canción
Repetir
Otros videos de esta canción
Compositor no encontrado.
2 vistas
    • ½ Tono
    • A
    • Bb
    • B
    • C
    • Db
    • D
    • Eb
    • E
    • F
    • F#
    • G
    • Ab
  • Agregar a la lista

    0 comentarios

    Ver todos los comentarios

    ¿Lograste tocar?

    0 Tocaron 0 Aún no

    ¡Graba un video tocando Marchemos a Belén y envíanoslo!

    00:00 / 00:00
    OK