Cifra Club

Verano Traidor

Vilma Palma e Vampiros

Cifrado: Principal (guitarra y guitarra eléctrica)
tono: Bm
[Intro]

       Bm     G       A       F#m
E|------------------------------|
B|------------------------------|
G|------------------------------|
D|--9~~--9s5~~---5s7~~---7s4~~--|
A|--9~~--9s5~~---5s7~~---7s4~~--|
E|--7~~--7s3~~---3s5~~---5s2~~--|
       Bm     G       A       F#m
E|------------------------------|
B|------------------------------|
G|------------------------------|
D|--9~~--9s5~~---5s7~~---7s4~~--|
A|--9~~--9s5~~---5s7~~---7s4~~--|
E|--7~~--7s3~~---3s5~~---5s2~~--|

      Bm                    G              A       F#m
E|--2-5-5h7-2-5-7-2-5-5h7-2-5-7-7h9-7-5~-2-5-7-7h9-7-5~-|
B|------------------------------------------------------|
G|------------------------------------------------------|
D|------------------------------------------------------|
A|------------------------------------------------------|
E|------------------------------------------------------|
      Bm                    G              A       F#m
E|--2-5-5h7-2-5-7-2-5-5h7-2-5-7-7h9-7-5~-2-5-7-7h9-7-5~-|
B|------------------------------------------------------|
G|------------------------------------------------------|
D|------------------------------------------------------|
A|------------------------------------------------------|
E|------------------------------------------------------|

Bm               G               A
   Se inunda mi voz como algo casual
                  F#m               Bm
   De ecos de su cuerpo que ya no está

   Presiento un adiós como una flor

   Que se seca mal de tanto esperar

   Y en este fuego yo la buscaré

   Besando las marcas sobre mi piel

Bm             G            A
   Verano traidor devolvemelá
               F#m                 G
   Ella ya no sabe que me puede hacer
G                  D                   A      Bm
   Beberé por mi amor, beberé de su ardor la sal
G                D                A             E
   Pasará sin querer pasará sin pasar         ah  ahaaaa

Bm                   G                A
   Como calienta el sol y sé que no está
                     F#m        G
   Me duele como un Dios la ciudad.
            Bm                     Bm                Bm
   Quisiera verla llorar, quisiera verla reír, como ayer
                   G                 A
   En el frío del mar la saldré a buscar
                   F#m            G
   Tratando de llegar hasta el fin
             Bm                     Bm
   No puedo verme llorar, quisiera sólo gritar

       Bm                    G              A       F#m
E|--2-5-5h7-2-5-7-2-5-5h7-2-5-7-7h9-7-5~-2-5-7-7h9-7-5~-|
B|------------------------------------------------------|
G|------------------------------------------------------|
D|------------------------------------------------------|
A|------------------------------------------------------|
E|------------------------------------------------------|
       Bm                    G              A       F#m
E|--2-5-5h7-2-5-7-2-5-5h7-2-5-7-7h9-7-5~-2-5-7-7h9-7-5~-|
B|------------------------------------------------------|
G|------------------------------------------------------|
D|------------------------------------------------------|
A|------------------------------------------------------|
E|------------------------------------------------------|

Bm                  G               A
   Si el viento callo tendrá una razón
                 F#m            Bm
   Todo lo que lleva no vuelve más

Bm                 G                 A
   En un rayo de amor, en olas de dolor
                  F#m         Bm
   Dónde más se quema el corazón

Bm               G              A
   Y en esta prisión yo me moriré
                F#m            Bm
   Dejando las marcas en la pared

Bm             G            A
   Verano traidor devolvemelá
               F#m                 G
   Ella ya no sabe que me puede hacer
G                  D                   A      Bm
   Beberé por mi amor, beberé de su ardor la sal
G                D                A             E
   Pasará sin querer pasará sin pasar         ah  ahaaaa

Bm                   G                A
   Como calienta el sol y sé que no está
                     F#m        G
   Me duele como un Dios la ciudad
            Bm                     Bm                Bm
   Quisiera verla llorar, quisiera verla reír, como ayer
                   G                 A
   En el frío del mar la saldré a buscar
                   F#m            G
   Tratando de llegar hasta el fin
             Bm                     Bm
   No puedo verme llorar, quisiera sólo gritar

       Bm                    G              A       F#m
E|--2-5-5h7-2-5-7-2-5-5h7-2-5-7-7h9-7-5~-2-5-7-7h9-7-5~-|
B|------------------------------------------------------|
G|------------------------------------------------------|
D|------------------------------------------------------|
A|------------------------------------------------------|
E|------------------------------------------------------|
       Bm                    G              A       F#m
E|--2-5-5h7-2-5-7-2-5-5h7-2-5-7-7h9-7-5~-2-5-7-7h9-7-5~-|
B|------------------------------------------------------|
G|------------------------------------------------------|
D|------------------------------------------------------|
A|------------------------------------------------------|
E|------------------------------------------------------|

G                  D                   A      Bm
   Beberé por mi amor, beberé de su ardor la sal
G                 D              A                 E
   Pasará sin querer pasará sin pasar         ah ahaaaa

Bm                   G                A
   Como calienta el sol y sé que no está
                     F#m        G
   Me duele como un Dios la ciudad
            Bm                     Bm                 Bm
   Quisiera verla llorar, quisiera verla reír, como ayer
                   G                  A
   En el frío del mar la saldré a buscar
                  F#m           G
   Tratando de llegar hasta el fin
            Bm                      Bm                 Bm
   No puedo verme llorar, quisiera sólo gritar, como ayer
Bm                   G                A
   Como calienta el sol y sé que no está
                     F#m        G
   Me duele como un Dios la ciudad
            Bm                     Bm                Bm
   Quisiera verla llorar, quisiera verla reír, como ayer
                   G                  A
   En el frío del mar la saldré a buscar
                  F#m           G
   Tratando de llegar hasta el fin
            Bm                     Bm
   No puedo verme llorar, quisiera sólo gritar
            Bm                     Bm
   No puedo verme llorar, quisiera sólo gritar
Composición de Jorge Risso / Mario Gomez
Colaboración y revisión:
  • Fernando Hidalgo
  • Yisus Diaz
750 vistas
    • ½ Tono
    • Am
    • Bbm
    • Bm
    • Cm
    • C#m
    • Dm
    • Ebm
    • Em
    • Fm
    • F#m
    • Gm
    • G#m
  • Agregar a la lista

    0 comentarios

    Ver todos los comentarios

    ¿Lograste tocar?

    0 Tocaron 0 Aún no

    ¡Graba un video tocando Verano Traidor y envíanoslo!

    00:00 / 00:00
    Outros vídeos desta música
    Repetir Calidad Automático
    Outros vídeos desta música
    00:00 / 00:00
    Automático
    OK