Cifra Club

2013

Viniloversus

Cifrado: Principal (guitarra y guitarra eléctrica)
tono: A
A     D        D#        E         G
5776  10121211 11131312  12141413  15171716
Intro

E|-------------------5-8--8-5--------------------------------------5-8-|
B|---------------5-8----------8-5------------------------------5-8-----|
G|------------5-7-----------------7-5-----------------------5-7--------| X2
D|---------5-7-----------------------7-5----------------5-7------------|
A|-----5-7------------------------------7-5---------5-7----------------|
E|-5-8--------------------------------------8-5--5-8-------------------|


A
Vuelve al escenario que te estamos esperando
A
dios te dio un chance y ahora tienes que aceptarlo
A                        D              D#
todo el mundo ya murio ( todo el mundo ya murio )
A                         D          D#
solo quedamos tu y yo ( solo quedamos tu y yo )


E|--------------------------------------------|
B|--------------------------------------------|
G|---------5---------5---------5--7-7-5-7-5---|
D|-7-7-7-7---7-7-7-7---7-7-7-7----------------|
A|--------------------------------------------|
E|--------------------------------------------|

E|------------------------------------|
B|------------------------------------|
G|----------5----------5--7-7-7-7-5---|
D|--7-7-7-7---7-7-7-7---------------7-|
A|------------------------------------|
E|------------------------------------|


A
Vuelve al escenario que por ti estan preguntando
A
si no vas ahora nunca podras saber cuando
A                        D             D#
todo el mundo ya murio ( todo el mundo ya murio )
A                        D             D#
solo quedamos tu y yo ( solo quedamos tu y yo )

A                    D            D#
si no lo puedes ver no quieres entender
A                      D                D#
soy tu unica opcion, porque esta es la extincion

A D E G A

todo el mundo ya murio

solo quedamos tu y yo

si no lo puedes ver no quieres entender

soy tu unica opcion, porque esta es la extincion

A                        D             D#
todo el mundo ya murio ( todo el mundo ya murio )
A                        D             D#
solo quedamos tu y yo ( solo quedamos tu y yo )

A                    D            D#
si no lo puedes ver no quieres entender
A                      D                D#
soy tu unica opcion, porque esta es la extincion

E|--------------------------------------------|
B|--------------------------------------------|
G|---------5---------5---------5--7-7-5-7-5---|
D|-7-7-7-7---7-7-7-7---7-7-7-7----------------|
A|--------------------------------------------|
E|--------------------------------------------|

E|------------------------------------|
B|------------------------------------|
G|----------5----------5--7-7-7-7-5---|
D|--7-7-7-7---7-7-7-7---------------7-|
A|------------------------------------|
E|------------------------------------|

E|---------------------------------------------------------------|
B|---------------------------------------------------------------|
G|-------------17-------------17------------17--19-19-17-19-17---|
D|-19-19-19-19-----19-19-19-19---19-19-19-19---------------------|
A|---------------------------------------------------------------|
E|---------------------------------------------------------------|

E|--------------------------------------------------|
B|--------------------------------------------------|
G|-------------17------------17--19-19-19-19-17-----|
D|--19-19-19-19---19-19-19-19-------------------19/-|
A|--------------------------------------------------|
E|--------------------------------------------------|
00:00 / 00:00
Otros videos de esta canción
Repetir
Otros videos de esta canción
Compositor no encontrado.
5 exhibiciones
    • ½ Tono
    • A
    • Bb
    • B
    • C
    • Db
    • D
    • Eb
    • E
    • F
    • F#
    • G
    • Ab
  • Agregar a la lista
    00:00 / 00:00
    OK