Cifra Club

Vicerversa

Viniloversus

Cifrado: Principal (guitarra y guitarra eléctrica)
tono: G
Intro

E|------------------------------------------------------------------|
B|----------3-----------1------1---------1--------------------------|
G|------2------------2-----2----------0-----0----------1------1-----X4|
D|---0------------2---------------------------------2------2--------|
A|---------------------------------3-------------2------------------|
E|------------------------------------------------------------------|


D         Am          C
Son cien lunas como agua sin espuma
D     Am         C
como dias sin anochecer
D     Am       C
yo sin ti soy una duda
D    Am                C
un problema que no puedo resolver.
G                   D
Y ahora entiendo la verdad
G           D
es tan sencillo.

E|------------------------------------------------------------------|
B|----------3-----------1------1---------1--------------------------|
G|------2------------2-----2----------0-----0----------1------1-----X4|
D|---0------------2---------------------------------2------2--------|
A|---------------------------------3-------------2------------------|
E|------------------------------------------------------------------|

D        Am          C
Si me muero y luego vuelvo podra ser,
D         Am
ojala pueda tener
       C
la misma suerte
D    Am      C
de tenerte nuevamente.
G                   D
Y ahora entiendo la verdad
G            Am
si es tan sencillo...
D
Piensa en mi,
Am
Yo pienso en ti
C                        G        D
no ves que asi es como funciooooooona
Am             C              G
mejor asi no supe contestar

E|------------------------------------------------------------------|
B|----------3-----------1------1---------1--------------------------|
G|------2------------2-----2----------0-----0----------1------1-----X4|
D|---0------------2---------------------------------2------2--------|
A|---------------------------------3-------------2------------------|
E|------------------------------------------------------------------|

D    Am       C
Es asi como tenia que ser
D      Am           C
para que, para que vencer los miedos
D        Am          C
si los miedos solo vuelven a nacer
D          Am            C
y vuelvo a tener miedo de estar solo de estar.
G                   D
Y ahora entiendo la verdad
G            Am
si es tan sencillo...


D
Piensa en mi,
Am
Yo pienso en ti
C                        G        D
no ves que asi es como funciooooooona
Am             C              G
mejor asi no supe contestar X2

E|------------------------------------------------------------------|
B|----------3-----------1------1---------1--------------------------|
G|------2------------2-----2----------0-----0----------1------1-----X4|
D|---0------------2---------------------------------2------2--------|
A|---------------------------------3-------------2------------------|
E|------------------------------------------------------------------|


D    Am  C  D   Am    C
Viceversa va tomando fuerza,
       D   Am  C  D  Am    C
es el viceversa va tomando fuerza
00:00 / 00:00
Otros videos de esta canción
Repetir
Otros videos de esta canción
Composición de Rodrigo Gonsalves
16 exhibiciones
    • ½ Tono
    • A
    • Bb
    • B
    • C
    • Db
    • D
    • Eb
    • E
    • F
    • F#
    • G
    • Ab
  • Agregar a la lista
    00:00 / 00:00
    OK