Cifra Club

Yunque

Viniloversus

Cifrado: Principal (guitarra y guitarra eléctrica)
tono: D
Intro

E||----------------------|-----------------------|----------------------|
B||----------------------|-----------------------|----------------------|
G||----------------------|-----------------------|----------------------|
D||----------------------|-----------------------|----------------------|
A||-----------------0----|--0h----1----0---------|-----------------0----|
D||--0----2----3---------|------------------3----|--0----2----3---------|


E|-----------------------|-------------------------|-------------------------|
B|-----------------------|-------------------------|-------------------------|
G|-----------------------|-------------------------|-------------------------|
D|-----------------------|-------------------------|-------------------------|
A|--0h----1----0---------|-------------------12----|--12h----13----12--------|
E|------------------3----|--0----14----15----------|---------------------15--|

E|----------------------|-----------------------|-------------------|-------|
B|----------------------|-----------------------|-------------------|-------|
G|----------------------|-----------------------|-------------------|-------|
D|----------------------|-----------------------|--0----------------|-------|
A|----------------12----|--12h---13---12--------|--0----------------|-------|
E|--0---14---15---------|------------------15---|--0----------------|-------|

E|--------------------|-------|
B|--------------------|-------|
G|--------------------|-------|
D|--12----------------|-------|
A|--12----------------|-------|
E|--12----------------|-------|

E|--------------------------------------------------|
B|--15-15-15-15-15-15-15-15-15-15-15-15-15-15-15-15-|
G|--------------------------------------------------|
D|--12-12-12-12-12-12-12-12-12-12-12-12-12-12-12-12-|
A|--------------------------------------------------| x4
E|--------------------------------------------------|


E||----------------------------------|-----------------------------|
B||------15------13------------------|----------------12b----------|
G||----------------------15------14--|------10--12----12b----10----|
D||--12------12------12------12------|--12-------------------------|
A||----------------------------------|-----------------------------|
D||----------------------------------|-----------------------------|


E|------------------------------------|----------------------------------|
B|--------------12b-------------------|------15------13------------------|
G|------10--12--12b--10------10--12b--|----------------------15------14--|
D|--12-------------------12-----------|--12------12------12------12------|
A|------------------------------------|----------------------------------|
E|------------------------------------|----------------------------------|

E|-----------------------------|---------------------------|
B|----------------12b----------|----------------12b--------|
G|------10--12----12b----10----|------10--12----12b--------|
D|--12-------------------------|--12-----------------------|
A|-----------------------------|---------------------------|
E|-----------------------------|---------------------------|

E|--------------------------|------------------------|
B|--------------------------|------------------------|
G|-----7-----5--------------|------------------------|
D|-----------------8-----7--|-----3--5----5b----3----|
A|--5-----5-----5-----5-----|--5---------------------|
E|--------------------------|------------------------|

E|----------------------------|--------------------------|
B|----------------------------|--------------------------|
G|----------------------------|-----7-----5--------------|
D|-----3--5--5b--3-----3--5b--|-----------------8-----7--|
A|--5---------------5---------|--5-----5-----5-----5-----|
E|----------------------------|--------------------------|

E|------------------------|-----------------------| |
B|------------------------|-----------------------| |
G|------------------------|-----------------------| |
D|-----3--5----5b----3----|-----3--5----5b--------| |
A|--5---------------------|--5--------------------| |
E|------------------------|-----------------------| |


E||----------------------|-----------------------|----------------------|
B||----------------------|-----------------------|----------------------|
G||----------------------|-----------------------|----------------------|
D||----------------------|-----------------------|----------------------|
A||-----------------0----|--0h----1----0---------|-----------------0----|
D||--0----2----3---------|------------------3----|--0----2----3---------|


E|-----------------------|-------------------------|-------------------------|
B|-----------------------|-------------------------|-------------------------|
G|-----------------------|-------------------------|-------------------------|
D|-----------------------|-------------------------|-------------------------|
A|--0h----1----0---------|-------------------12----|--12h----13----12--------|
E|------------------3----|--0----14----15----------|---------------------15--|


E||----------------------------------|------------------------------|
B||----------------------------------|------------------------------|
G||----------------------------------|------------------------------|
D||----------------------------------|------------------------------|
A||----------------------------------|------------------------------|
D||--12--14--15--12--14--15--12--14--|--15--12--14--15--14----12----|

Verso

E||-------------------|-------------------|-------------------|
B||-------------------|-------------------|-------------------|
G||-------------------|-------------------|-------------------|
D||--0----------------|-------------------|-------------------|
A||-------------------|--0----------------|-------------------|
D||-------------------|-------------------|--0----------------|

                                                            x2
E|--------------------------|------------------------|
B|--------------------------|------------------------|
G|--------------------------|------------------------|
D|--------------------------|------------------------|
A|--------------------------|------------------------|
E|--0--2--3--0--2--3--0--2--|--3--0--2--3--2----0----|


E||--------------------------|------------------------|---------------------|
B||--4--6--7--4--6--7--4--6--|--7--4--6--7--6----4----|--6--7--9--6--7----9-|
G||--------------------------|------------------------|---------------------|
D||--------------------------|------------------------|---------------------|
A||--------------------------|------------------------|---------------------|
D||--------------------------|------------------------|---------------------|


E|--11--11--11--11--11br--------|
B|------------------------------|
G|------------------------------|
D|------------------------------|
A|------------------------------|
E|------------------------------|

Coro

E||----------------------|-----------------------|----------------------|
B||----------------------|-----------------------|----------------------|
G||----------------------|-----------------------|----------------------|
D||----------------------|-----------------------|----------------------|
A||-----------------0----|--0h----1----0---------|-----------------0----|
D||--0----2----3---------|------------------3----|--0----2----3---------|


E|-----------------------|-------------------------|-------------------------|
B|-----------------------|-------------------------|-------------------------|
G|-----------------------|-------------------------|-------------------------|
D|-----------------------|-------------------------|-------------------------|
A|--0h----1----0---------|-------------------12----|--12h----13----12--------|
E|------------------3----|--0----14----15----------|---------------------15--|


E||----------------------------------|------------------------------|
B||----------------------------------|------------------------------|
G||----------------------------------|------------------------------|
D||----------------------------------|------------------------------|
A||----------------------------------|------------------------------|
D||--12--14--15--12--14--15--12--14--|--15--12--14--15--14----12----|


E||----------------------------------|------------------------------|
B||----------------------------------|------------------------------|
G||----------------------------------|------------------------------|
D||----------------------------------|------------------------------|
A||----------------------------------|------------------------------|
D||--12--14--15--12--14--15--12--14--|--15--12--14--15--14----12----|

Puente

E||---------|---------|---------|---------|
B||---------|---------|---------|---------|
G||---------|---------|---------|---------|
D||--0------|--3------|--5------|--8------|
A||--0------|--3------|--5------|--8------|
D||--0------|--3------|--5------|--8------|

E|---------|
B|---11----|
G|---13b---|
D|---------|
A|---------|
E|---------|

Solo

E||--10----10-8h-10p-8----8----------|-------------------------------|
B||--------------------10----10---8--|-------8------8--10~----6h-8-6-|
G||----------------------------------|--10------10-------------------|
D||----------------------------------|-------------------------------|
A||----------------------------------|-------------------------------|
D||----------------------------------|-------------------------------|


E|------------------------|--10---10-10-8h-10p-8----8-------8--|
B|-----6--------6---------|----------------------10----10------|
G|--7-----7--7-------7----|------------------------------------|
D|------------------------|------------------------------------|
A|------------------------|------------------------------------|
E|------------------------|------------------------------------|

E|--10S--12--10--8------8--10----|--13--13--13--15--15----15----|
B|------------------10-----------|------------------------------|
G|-------------------------------|------------------------------|
D|-------------------------------|------------------------------|
A|-------------------------------|------------------------------|
E|-------------------------------|------------------------------|

E|--15--15--17--15--13--15--13----|---------------------------|
B|--------------------------------|--3h-6p-3----3---8----6----|
G|--------------------------------|----------5----------------|
D|--------------------------------|---------------------------|
A|--------------------------------|---------------------------|
E|--------------------------------|---------------------------|

E|---------------------------|--10h-13p-10-----10---15----13----|
B|--3h-6p-3----3---6----3----|-------------13-------------------|
G|----------5----------------|----------------------------------|
D|---------------------------|----------------------------------|
A|---------------------------|----------------------------------|
E|---------------------------|----------------------------------|

E|--10-13-10-----10---13----10----|
B|-----------13-------------------|
G|--------------------------------|
D|--------------------------------|
A|--------------------------------|
E|--------------------------------|

E|--13-13-13-13-13-13-15-15-15-15-15-15-17-17-17-17-|
B|--------------------------------------------------|
G|--------------------------------------------------|
D|--------------------------------------------------|
A|--------------------------------------------------|
E|--------------------------------------------------|

E|--17-17-20-20-20-20-20-20-22--------| |
B|------------------------------------| |
G|------------------------------------| |
D|------------------------------------| |
A|------------------------------------| |
E|------------------------------------| |
00:00 / 00:00
Otros videos de esta canción
Repetir
Otros videos de esta canción
Composición de Viniloversus
41 exhibiciones
    • ½ Tono
    • A
    • Bb
    • B
    • C
    • Db
    • D
    • Eb
    • E
    • F
    • F#
    • G
    • Ab
  • Agregar a la lista
    00:00 / 00:00
    OK