Cifra Club

Roda Da História

Violins

Cifrado: Principal (guitarra y guitarra eléctrica)
tono: C
Intro:

E|-----------------0-----------------------0---|
B|-1-0-1-0---------0------1-0-1-0----------0---|
G|-2-2-2-2----0----0--0---2-2-2-2----0-----0--0|
A|-2-2-2-2----2-------2---2-2-2-2----2--------2|
D|------------2--2----2--------------2--2-----2|
E|---------------------------------------------|

E|-----------------0-----------------------0---|
B|-1-0-1-3---------0------1-0-1-0----------0---|
G|-2-2-2-2----0----0--0---2-2-2-2----0-----0--0|
A|-2-2-2-2----2-------2---2-2-2-2----2--------2|
D|------------2--2----2--------------2--2-----2|
E|---------------------------------------------|


( Am Em )
Se o mundo acabar
Ninguém tem o direito de se entristecer aqui
Pra tudo se chega o tempo de se decretar um fim

C            Em     C                 Em
Vamos só sair de cena como os dinossauros
C              Em     C         Em
E depois outro animal vai prosseguir

C
A roda da história
F
Que é o vídeo-game de deus
C                                         Am
Quando isso aconteceu a gente nem estava aqui
                      C
Vamos celebrar com vinho
                        F
Que até se logrou adiar por muito tempo
Em           Am
Um merecido fim

C
Vamos agitar nossas bandeiras
           F
Representar nossas nações
             C
No desfile de despedida
                 Am
Dando um "falou!" pro mundo
                   C
Com nossas melhores roupas
              F
E nosso melhor sorriso
Am           F
Agradecer a oportunidade
                 ( Am Em Am Em Am Em Am Em )
De ter estado aqui

( Am Em )
Se o mundo acabar
Ninguém tem o direito de se entristecer aqui.
Composición de Beto Cupertino
Colaboración y revisión:
  • saimon wagmann
86 vistas
    • ½ Tono
    • A
    • Bb
    • B
    • C
    • Db
    • D
    • Eb
    • E
    • F
    • F#
    • G
    • Ab
  • Agregar a la lista

    0 comentarios

    Ver todos los comentarios

    ¿Lograste tocar?

    2 Tocaron 0 Aún no

    ¡Graba un video tocando Roda Da História y envíanoslo!

    00:00 / 00:00
    Otros videos de esta canción
    Repetir Calidad Automático
    Otros videos de esta canción
    00:00 / 00:00
    Automático
    OK