Cifra Club

I Will Come For You

Virgin Steele

Cifrado: Principal (guitarra y guitarra eléctrica)
Selo Cifra Club: esta cifra foi revisada para atender aos critérios oficiais da nossa Equipe de Qualidade.
tono: Bm
E|------------------------------------------------------------------------------|
B|------------------------------------------------------------------------------b|
G|-----------------------------7---------------------------------7--------------|
D|-----------------------------7---------------------------------7--------------|
A|--0-0-0-0-0-0--| listen record-5-------0-0-0-0-0-0-listen record-5--------------a
E|------------------------------------------------------------------------------|

listen record

riff b

E|--------------------------------------------------------------------------|
B|--------------------------------------------------------------------------b|
G|--------------9------------------9------------------7-----------------7---|
D|--------------9------------------9------------------7-----------------7---|
A|--0-0-0-0-0-0-7------0-0-0-0-0-0-7------0-0-0-0-0-0-5-----0-0-0-0-0-0-5---a|
E|--------------0------------------0----------------------------------------|

riff c

&
E|--------------------------------------------------------------------------------------|
B|--------------------------------------------------------------------------------------b|
G|-------9-12-9------7-10-7----5-9-5------4-7-4-----9-12-9------7-10-7-----5-9-5-9^^^^--|
D|---10-----------9----------7---------5---------10----------9----------7---------------|
A|--------------------------------------------------------------------------------------a|
E|--------------------------------------------------------------------------------------|

fill 1     riff d = verse
                                                                 2x
E|--------|--------------------------------------------------------|
B|--------|--------------------------------------------------------b|
G|--7---9-|-----------------------------------7--7---5-4-5-7-5-4---|
D|--7-5-9-|---7--------------7----------------7--7---7-5-7-9-7-5---|
A|--5-5-7-|---7--------------7----------------5^^5-----------------a|
E|----3---|---5--5-5-5-5-5-5-5--5-5-5-5-5-5-5----------------------|

riff e = pre chorus
                      |1.2.3.    & 4.
E|---------------------------------|--------------------------------|
B|---------------------------------|--------------------------------b|
G|----------7----------------------|--------------------------------|
D|-7--2--7--7--7--2--7-------------|--------------------------------|
A|-7--2--7--5--7--2--7-------------|--------------------------------a|
E|-5--0--5-----5--0--5-5-5-5-5-5-5-|--------------------------------|

riff f

E|----------------------------------------------------------------------------------|
B|----------------------------------------------------------------------------------b|
G|----------------------------------------------------------------------------------|
D|----------------------------------------------------------------------------------|
A|----3---5-3---3---2----3---5-3---3---2-------5---7-5---5---3----5---7-5---5---3---a|
E|--3---3-----3---3----3---3-----3---3-------5---5-----5---5----5---5-----5---5-----|

E|----------------------------------------------------------------------------------|
B|----------------------------------------------------------------------------------b|
G|----------------------------------------------------------------------------------|
D|----------------------------------------------------------------------------------|
A|---7---9-7---7---5-----7---9-7---7---5------8---10---15^^----9---11---16^^--------a|
E|-7---7-----7---7-----7---7-----7---7------8---8----8-------9---9----9-------------|

riff g                              fill

E|-----------------------------------10-8-7-----------------------------------------|
B|------------------------------------------10-8-7----------------------------------b|
G|-------------------------------------------------9-7-------s| l---------------------g
D|-3---5-7---------5--7--9-----------------------------10-9-7-\-5-7-9---------------|
A|-1^^-3-5---7--5--3--5--7-^^^^^^-------------------------------------5^^-----------a|
E|-----------5--3-------------------------------------------------------------------|

riff h

E|----------------------------------------------------------------------------------|
B|----------13---------------s| l--sl-------------------------------------------------b
G|--9-10-12----12-10-9--10--10\12\5^^---9-10-7^^-9-10-5^^---7-5-5--9-7-7---5-5^^-57-|
D|-----------------------------------------------------------------------7----------|
A|----------------------------------------------------------------------------------a|
E|----------------------------------------------------------------------------------|


fill
E|--------------------------------------------------------------------------------------------|
B|------------13----------------------13----------------------13------------------------------b|
G|----9-10-12----12-10-9-10^^--9-10-12---12-10-9-10^^-9-10-12----12-10-9-10^^-10-9-7-5-7-9-7--|
D|--------------------------------------------------------------------------------------------|
A|--------------------------------------------------------------------------------------------a|
E|--------------------------------------------------------------------------------------------|

                                end of riff h

E|---------------------------------------------|----------------------------------------------|
B|---------------------------------------------|----------------------------------------------b|
G|-4-7-5--2-5-4-0-^^-----2---4---2-------------|----------------------------------------------|
D|---------------------2---2---2---2-4-2^^-----|----------------------------------------------|
A|---------------------------------------------|---3---5-3---3---2------3---5-3---3---2-------a|
E|---------------------------------------------|-3---3-----3---3------3---3-----3---3---------|


E|-----------------------------------------------------------------------|
B|-----------------------------------------------------------------------b|
G|-----------------------------------------------------------------------|
D|-----------------------------------------------------------------------|
A|---5---5-7-8^-7-5----------5---5-7-8^-7-5--------10-8-7------12^^------a|
E|-5---5------------8-5----5---5------------8-5-----------10-8-----------|

riff a
outro chorus

E|---------------|
B|---------------|
G|-----7---------|
D|--4--7--7--2---|
A|--4--5--7--2---|
E|--2-----5--0---|

riff b


E|----------|
B|----------b|
G|--7---9---|
D|--7-5-9---|
A|--5-5-7---a|
E|----3-----|
Otros videos de esta canción
    6 exhibiciones
      • ½ Tono
      • Am
      • Bbm
      • Bm
      • Cm
      • C#m
      • Dm
      • Ebm
      • Em
      • Fm
      • F#m
      • Gm
      • G#m
    • Agregar a la lista

    Afinação da cifra

    Afinador online

      Ops (: Contenido disponible solo en portugués.
      OK