Cifra Club

We Rule The Night

Virgin Steele

Cifrado: Principal (guitarra y guitarra eléctrica)
Selo Cifra Club: esta cifra foi revisada para atender aos critérios oficiais da nossa Equipe de Qualidade.
tono: Em
E|----------------------------------------------------------|
B|----------------------------------------------------------|
G|---9----7-----5----5----4^^---12----10----9-----10^^------|
D|--10----9-----7----7----5^^---14----12----10----12^^------|
A|-----00---00----00---00----------00----00----00-----------|
E|----------------------------------------------------------|
|
|guitar 2
|
E|----------------------------------------------------------|
B|----------------------------------------------------------|
G|-2--------------------------------------------------------|
D|-2-------------------------------------------------2-3-4--|
A|-0-------------------------------------------------0-3-2--|
E|----------------------------------------------------------|

riff 2
                            4x
E|------------0----------------|
B|------------0--| let ring------|
G|--------2---2----------------|
D|-5-4----2--------------------|
A|-3-2-0-----------------------|
E|-----------------------------|


verse riff

E|-------------------------------------------------------------------|
B|-------------------------------------------------------------------|
G|-------------------------------------------------------------------|
D|-------------------------------------------------------------------|
A|-7----7----7----7----7----7----7----7----2----2----2----2----2-----|
E|-5-55-5-55-5-55-5-55-5-55-5-55-5-55-5-55-0-00-0-00-0-00-0-00-0-00--|

E|-------------------------------------------------------------------|
B|-------------------------------------------------------------------|
G|-------------------------------------------------------------------|
D|--------------------------------------------------------5----5-----|
A|-2----2----2----3----3----3----3----3----3----3----3----3-33-3-33--|
E|-0-00-0-00-0-00-1-11-1-11-1-11-1-11-1-11-1-11-1-11-1-11------------|

                                2x fill 1. time
E|----------------------------------|-------|
B|----------------------------------|-------|
G|----------------------------------|-------|
D|-5----5---------------------------|-------|
A|-3-33-3-33---5----5----5----5-----|--02-3-|
E|-------------3-33-3-33-3-33-3-33--|-------|


middle part

E|------------|-------|
B|------------|-------|
G|------------|-------|
D|-4--4--4--4-|--4-4--|
A|-2--2--2--2-|--2-2--|
E|------------|-------|

riff 5

E|----------------------------------------------------------------|
B|----------------------------------------------------------------|
G|---------------------------------------9----7----5----5----4^^--|
D|--7^^----------------------------7^^--10----9----7----7----5^^--|
A|--5^^--8^^-10^^-8p7^^-787--787---5^^-----00---00---00---00------|
E|-------------------------8----8---------------------------------|

chorus riff:

E|-----------------------------------------------------------|
B|-----------------------------------------------------------|
G|----------------------------------------7----7----7--------|
D|-7----7----7--------3----3----3------2--7----7----7----7-5-|
A|-7----7----7----7-5-3----3----3----3-2--5-55-5-55-5-55-5-3-|
E|-5-55-5-55-5-55-5-3-1-11-1-11-1-11-1-0---------------------|

                          2x
E|---------------------------|
B|---------------------------|
G|--9----7----5----5----4^^--|
D|-10----9----7----7----5^^--|
A|----00---00---00---00------|
E|---------------------------|

riff 1
riff 3
middle part
riff 5
chorus riff

solo riffs

riff 1 = solo riff repeat 4x

riff 6

E|------------------------------------------------------|
B|------------------------------------------------------|
G|------------------------------------------------------|
D|-9^^--10-7-7-9^^-5--12--10--9^^--10-7-7-9^^-5--12-10--|
A|-7^^--8--5-5-7^^-3--10--8---7^^--8--5-5-7^^-3--10-8---|
E|------------------------------------------------------|

chorus riff
riff 1

ending riff

E|-----------------------------------------------|
B|-----------------------------------------------|
G|-----------------------------------------------|
D|-2-4-5-6-----7----------------2-------------7--|
A|-0-2-3-4-3-5-7--| crashing end--2--bass solo--7--|
E|---------1-3-5----------------0-------------5--|
Otros videos de esta canción
    5 exhibiciones
      • ½ Tono
      • Am
      • Bbm
      • Bm
      • Cm
      • C#m
      • Dm
      • Ebm
      • Em
      • Fm
      • F#m
      • Gm
      • G#m
    • Agregar a la lista

    Afinação da cifra

    Afinador online

      Ops (: Contenido disponible solo en portugués.
      OK