Cifra Club

Close Minded

Vision

Tablatura: Principal (guitarra)
tono: D
Intro:
  Gtr 2:
e-|----------------------------------------------|
B-|----------------------------------------------|
G-|----------------------------------------------|
D-|------------7-7-7-7-7-7-----------------------|
A-|-/9-9-9-9-9-------------7-7-7-7-7-7-9-9-9-9-9-|
E-|----------------------------------------------|

e-|---------------------------------------------------|
B-|---------------------------------------------------|
G-|----------------------6-6-6------------------------|
D-|---------------7-7-7-------------------------------|
A-|-4-4/9-9-9-9-9---------------7-7-7-7-7-7-9-9-9-9-9-|
E-|---------------------------------------------------|

  Gtr 1 (after gtr 2 has played 2x):
 something SIMILAR to this (not quite right)
e-|--------------------------------------*12-12-12-*12----*12-12-12-14p12p9-------|
B-|-*12-12-12-*12-12-12-*12-12-12-*12------------------12-------------------------|
G-|-----------------------------------12------------------------------------------|
D-|-------------------------------------------------------------------------------|
A-|-------------------------------------------------------------------------------|
E-|-------------------------------------------------------------------------------|

e-|-*14-14-*14----17-17p14----17p14-----------------------------------------------|
B-|------------14----------17-------15-15h17p15----------------------17*-15-------|
G-|---------------------------------------------16-14-14h16p14--------------16-14-|
D-|------------------------------------------------------------16-14--------------|
A-|-------------------------------------------------------------------------------|
E-|-------------------------------------------------------------------------------|

e-|----------------|
B-|----------------|
G-|----------------|
D-|-16-14h16p14----|
A-|-------------16-|
E-|----------------|

"everyone tells me I'm closed minded..." (gtr1&2)
e-|-------------------------------------------------|
B-|-------------------------------------------------|
G-|-------------7-7-7-7-7-7-------------------------|
D-|-4-4-4-4-4-4-7-7-7-7-7-7-2-2-2-2-2-2-4-4-4-4-4-4-|
A-|-4-4-4-4-4-4-5-5-5-5-5-5-2-2-2-2-2-2-4-4-4-4-4-4-|
E-|-2-2-2-2-2-2-------------0-0-0-0-0-0-2-2-2-2-2-2-|

e-|-------------------------------------------------|
B-|-------------------------------------------------|
G-|-------------7-7-7-7-7-7-9-9-9-9-9-9-6-6-6-6-6-6-|
D-|-4-4-4-4-4-4-7-7-7-7-7-7-9-9-9-9-9-9-6-6-6-6-6-6-|
A-|-4-4-4-4-4-4-5-5-5-5-5-5-7-7-7-7-7-7-4-4-4-4-4-4-|
E-|-2-2-2-2-2-2-------------------------------------|

"what am I to do, close minded...." (both)
e-|----------------------------------|
B-|----------------------------------|
G-|-7-7-6-6-4-2-4-4--x-x-7-6-4-2-6-6-|
D-|-7-7-6-6-4-2-4-4--x-x-7-6-4-2-6-6-|
A-|-5-5-4-4-2-0-2-2--x-x-5-4-2-0-4-4-|
E-|----------------------------------|

Solo-ish bit:
  Gtr 1
     just muck around with the E major pentatonic scale, written below
e-|----------------------------9-12-------12-14-------14-16-|
B-|-----------------------9-12------12-14-------14-17-------|
G-|------------------9-11-----------------------------------|
D-|-------------9-11----------------------------------------|
A-|--------9-11---------------------------------------------|
E-|-7-9-12--------------------------------------------------|

Outro:
  both gtrs
its the same as before, exept for the last time
e-|--------------------------------------------|
B-|--------------------------------------------|
G-|-------------7-7-7-7-7-7-9-9-9-9-9-9--------|
D-|-4-4-4-4-4-4-7-7-7-7-7-7-9-9-9-9-9-9-2-2-2~-|
A-|-4-4-4-4-4-4-5-5-5-5-5-5-7-7-7-7-7-7-2-2-2~-|
E-|-2-2-2-2-2-2-------------------------0-0-0~-|
46 reproducciones
    • ½ Tono
    • A
    • Bb
    • B
    • C
    • Db
    • D
    • Eb
    • E
    • F
    • F#
    • G
    • Ab
  • Adicionar à lista

    0 comentarios

    Ver todos os comentários

    ¿Conseguiste tocar?

    0 Tocaram 0 Ainda não

    Grave um vídeo tocando Close Minded e nos envie!

    00:00 / 00:00
    outros vídeos desta música
    repetir qualidade Automático
    Outros vídeos desta música
    00:00 / 00:00
    Automático
    OK