Cifra Club

Tu de que vas

Franco de Vita

Cifrado: Principal (guitarra y guitarra eléctrica)
tono: G#m
INTRO
Bmaj7  Emaj7  G#m  E F#7


Bmaj7           D#m7          G#m G#m7
Si me dieran a elegir una vez más
                 Emaj7 D#m7                          F#
te eligiría sin pensarlo    es que no hay nada que pensar
E F#      Bmaj7     D#m7       G#m G#m7
  que no existe ni motivo ni razón
                    Emaj7  D#m7
para dudarlo ni un segundo
                      F#        D#7          G#m
porque tu has sido lo mejor que tocó este corazón
               Emaj7                     F#   E F#
y que entre el cielo y tu yo me quedo contigo


B          B7/A             E
  Si te he dado todo lo que tengo
F#                             B
  Hasta quedar en deuda conmigo mismo
E                             F#    E     F#     B
  Y  todavía preguntas si te quiero tú de que vas
B              B7/A            E
  Si no hay un minuto de mi tiempo
F#                            B
  que no me pasas por el pensamiento
E                           F#
  Y todavía preguntas si te quiero


Bmaj7           D#m7            G#m          G#m7
Si esto no es querer entonces dime tu lo que será
     Emaj7         D#m7                     F#
si necesito de tus besos pa´ que pueda respirar
E F#      Bmaj7        D#m7       G#m G#m7
  y de tus ojos que van regalando vida
                    Emaj7  D#m7
y que me dejan sin salida
                      F#            D#7         G#m
y para que quiero salir si nunca he sido tan feliz
           Emaj7                     F#   E F#
que te prefiero mas que nada en este mundo

B          B7/A             E
  Si te he dado todo lo que tengo
F#                             B
  Hasta quedar en deuda conmigo mismo
E                             F#    E     F#     B
  Y  todavía preguntas si te quiero tú de que vas
B              B7/A            E
  Si no hay un minuto de mi tiempo
F#                            B
  que no me pasas por el pensamiento
E                           F#
  Y todavía preguntas si te quiero

    D#                G#m
Ohhhhhhhh y es que no vez
    A       F#
Que toda mi vida
    E     C#7       Fsus4 F#
Tan solo depende de ti

G  O

E|----------------------------------|
B|-------------------4-5-5s7--------|
G|--4---4--6-4-6b-------------------|
D|----6-----------------------------|
A|----------------------------------|
E|----------------------------------|

E|----------------------------------|
B|--4------------4------------------|
G|----h6-h4-6b-----4---4------------|
D|-------------------6--------------|
A|----------------------------------|
E|----------------------------------|

E|----------------------------------|
B|------5-5s7-----------------------|
G|----4-------6h8---6-4---4h6-------|
D|--6-------------------6-----------|
A|----------------------------------|
E|----------------------------------|

E|-----------------9----------------|
B|----7---7-9-9s11---11-9-7---------|
G|--6---6-------------------8-------|
D|----------------------------------|
A|----------------------------------|
E|----------------------------------|

E|--7---7-7--------9-9-9-9----------|
B|--7h9-7-9--------9-9-7-9----------|
G|----------6----9------------------|
D|----------------------------------|
A|----------------------------------|
E|----------------------------------|

E|--7-7-------6---------------------|
B|--7-7--5----7---------------------|
G|---------6------------------------|
D|----------------------------------|
A|----------------------------------|
E|----------------------------------|

E|----------------------------------|
B|----------------------------------|
G|--------5---7--5--7---5-----------|
D|--5--7----------------------------|
A|----------------------------------|
E|----------------------------------|

C          C7/A#             F
  Si te he dado todo lo que tengo
G                            C
  Hasta quedar en deuda conmigo mismo
F                             G     F     G      C
  Y  todavía preguntas si te quiero tú de que vas
C              C7/A#           F
  Si no hay un minuto de mi tiempo
G                             C
  que no me pasas por el pensamiento
F                           G
  Y todavía preguntas si te quiero
00:00 / 00:00
Otros videos de esta canción
Repetir
Otros videos de esta canción
Composición de Franco De Vita
80 vistas
    • ½ Tono
    • Am
    • Bbm
    • Bm
    • Cm
    • C#m
    • Dm
    • Ebm
    • Em
    • Fm
    • F#m
    • Gm
    • G#m
  • Agregar a la lista

    0 comentarios

    Ver todos los comentarios

    ¿Lograste tocar?

    0 Tocaron 0 Aún no

    ¡Graba un video tocando Tu de que vas y envíanoslo!

    00:00 / 00:00
    OK