Cifra Club

Acaso

Vitor Fernandes

Cifrado: Principal (guitarra y guitarra eléctrica)
tono: Cm
[Intro] Ab  Cm  Gm  Bb
        Ab  Cm  Gm  Bb

[Tab - Intro]

Parte 1 de 5
E|-11-10-11-10------------------------------|
B|-------------13-11----13-11h13------------|
G|-------------------12---------------------|
D|------------------------------------------|
A|------------------------------------------|
E|------------------------------------------|

Parte 2 de 5
E|-11-10------------------------------------|
B|-------13-11------------------------------|
G|-------------12--10/12-15\-10-------------|
D|------------------------------------------|
A|------------------------------------------|
E|------------------------------------------|

Parte 3 de 5
E|-11-10-11-10------------------------------|
B|-------------13-11----13-11/13------------|
G|-------------------13---------------------|
D|------------------------------------------|
A|------------------------------------------|
E|------------------------------------------|

Parte 4 de 5
E|-11-10------------------------------------|
B|-------13-11----13-11/13------------------|
G|-------------12---------------------------|
D|------------------------------------------|
A|------------------------------------------|
E|------------------------------------------|

Parte 5 de 5
E|-11-10------------------------------------|
B|-------13-11------------------------------|
G|-------------12--15\-10--13-12-10---------|
D|----------------------------------13-10---|
A|------------------------------------------|
E|------------------------------------------|

[Primeira Parte]

   Ab
E tá tudo bem
           Cm
Que pena que você tá indo embora
              Gm 
Eu sei que é tarde, me desculpe a hora
            Bb
Não vou dormir enquanto eu não dizer
    Ab
Que eu não tô bem
          Cm
Não tô legal com toda essa história
           Gm
Eu fiz de tudo 
                     Bb
Jurei o mundo pra a gente
                 Eb/G    Ab  Bb
E dessa não vai ser diferen_te

[Pré-Refrão]

Eb/G  Ab
         Vai ver que um dia 
              Cm
A gente se encontra
                          Gm
Vai deixar o acaso tomar conta
                              Bb
Vai ver que só não era nossa hora
                                Ab
Minha menina, eu te peço então volta
                                 Cm
Vai ver que um dia a gente se encontra
                          Gm
Vai deixar o acaso tomar conta
                              Bb
Vai ver que só não era nossa hora
                               Ab  Bb
Minha menina eu te peço então vol_ta

[Refrão]

[Tab - Solo]

Parte 1 de 6
E|-11-10-11-10------------------------------|
B|-------------13-11----13-11/13------------|
G|-------------------13---------------------|
D|------------------------------------------|
A|------------------------------------------|
E|------------------------------------------|

Parte 2 de 6
E|-11-10------------------------------------|
B|-------13-11----13-11/13------------------|
G|-------------12---------------------------|
D|------------------------------------------|
A|------------------------------------------|
E|------------------------------------------|

Parte 3 de 6
E|-11-10------------------------------------|
B|-------13-11------------------------------|
G|-------------12--15\-10-------------------|
D|------------------------------------------|
A|------------------------------------------|
E|------------------------------------------|

Parte 4 de 6
E|-11-10-11-10------------------------------|
B|-------------13-11----13-11/13------------|
G|-------------------13---------------------|
D|------------------------------------------|
A|------------------------------------------|
E|------------------------------------------|

Parte 5 de 6
E|-11-10------------------------------------|
B|-------13-11----13-11/13------------------|
G|-------------12---------------------------|
D|------------------------------------------|
A|------------------------------------------|
E|------------------------------------------|

Parte 6 de 6
E|-11-10------------------------------------|
B|-------13-11------------------------------|
G|-------------12--15\-10--13-12-10---------|
D|----------------------------------13-10---|
A|------------------------------------------|
E|------------------------------------------|

                  Ab
Eu te peço então volta
                  Cm
Eu te peço então volta
                  Gm   Bb
Eu te peço então volta
                  Ab
Eu te peço então volta
                  Cm
Eu te peço então volta
                  Gm   Bb
Eu te peço então volta

[Primeira Parte]

   Ab
E tá tudo bem
           Cm
Que pena que você tá indo embora
              Gm 
Eu sei que é tarde, me desculpe a hora
            Bb
Não vou dormir enquanto eu não dizer
    Ab
Que eu não tô bem
          Cm
Não tô legal com toda essa história
           Gm
Eu fiz de tudo 
                     Bb
Jurei o mundo pra a gente
                         Ab  Bb
E dessa não vai ser diferen_te

[Pré-Refrão]

Eb/G  Ab
         Vai ver que um dia 
              Cm
A gente se encontra
                          Gm
Vai deixar o acaso tomar conta
                              Bb
Vai ver que só não era nossa hora
                                Ab
Minha menina, eu te peço então volta
                                 Cm
Vai ver que um dia a gente se encontra
                          Gm
Vai deixar o acaso tomar conta
                              Bb
Vai ver que só não era nossa hora
                               Ab  Bb
Minha menina eu te peço então vol_ta

[Refrão Final]

[Tab - Solo]

Parte 1 de 6
E|-11-10-11-10------------------------------|
B|-------------13-11----13-11/13------------|
G|-------------------13---------------------|
D|------------------------------------------|
A|------------------------------------------|
E|------------------------------------------|

Parte 2 de 6
E|-11-10------------------------------------|
B|-------13-11----13-11/13------------------|
G|-------------12---------------------------|
D|------------------------------------------|
A|------------------------------------------|
E|------------------------------------------|

Parte 3 de 6
E|-11-10------------------------------------|
B|-------13-11------------------------------|
G|-------------12--15\-10-------------------|
D|------------------------------------------|
A|------------------------------------------|
E|------------------------------------------|

Parte 4 de 6
E|-11-10-11-10------------------------------|
B|-------------13-11----13-11/13------------|
G|-------------------13---------------------|
D|------------------------------------------|
A|------------------------------------------|
E|------------------------------------------|

Parte 5 de 6
E|-11-10------------------------------------|
B|-------13-11----13-11/13------------------|
G|-------------12---------------------------|
D|------------------------------------------|
A|------------------------------------------|
E|------------------------------------------|

Parte 6 de 6
E|-11-10------------------------------------|
B|-------13-11------------------------------|
G|-------------12--15\-10--13-12-10---------|
D|----------------------------------13-10---|
A|------------------------------------------|
E|------------------------------------------|

                  Ab
Eu te peço então volta
                  Cm
Eu te peço então volta
                  Gm   Bb
Eu te peço então volta
                  Ab
Eu te peço então volta
                  Cm
Eu te peço então volta
                  Gm   Bb  Ab
Eu te peço então volta
Composición de Luan Gaiato
Colaboración y revisión:
  • Victor Alves
  • Matheus Merlo
607 vistas
    • ½ Tono
    • Am
    • Bbm
    • Bm
    • Cm
    • C#m
    • Dm
    • Ebm
    • Em
    • Fm
    • F#m
    • Gm
    • G#m
  • Agregar a la lista

    0 comentarios

    Ver todos los comentarios

    ¿Lograste tocar?

    4 Tocaron 0 Aún no

    ¡Graba un video tocando Acaso y envíanoslo!

    00:00 / 00:00
    Otros videos de esta canción
    Repetir Calidad Automático
    Otros videos de esta canción
    00:00 / 00:00
    Automático
    OK