Cifra Club

Aprenda

Mala Pronta

Vitor Hugo & Daniel

Tablatura: Principal (guitarra)
Tom: C
  C                  Am                 F                       G
e|------------------|------------------|------------------------|----------------------------
B|------------------|------------------|------------------------|----------------------------
G|--------5-5---5-4-|------------------|------------------------|-5-5-4-4h5-5-5----5-4-2-2h4-
D|--5-5-5-----------|7-------7-7---7-5-|---7-5-7-5-7----5-7-5-7-|----------------------------
A|------------------|-7-7-7-----------8|------------------------|----------------------------
E|------------------|------------------|------------------------|----------------------------

Intro: ( C , Am , F , G )

 (C para Am)                   (Am para F)
  (riff 1)                       (riff 2)
e|----------                  e|----------
B|----------                  B|----------
G|----------                  G|----------
D|----------                  D|---2-0----
A|---3-2----                  A|----------
E|----------                  E|----------

C                    Am
Você passou da conta

e me tirou do sério
 F                                  G
Você fez tudo errado e acabou o mistério
C                     Am
Hoje eu tirei a prova

Hoje eu sai pra rua
 F                               G   
Hoje eu dividi a minha vida e a sua

Em                Am
Não dá mais, não valeu
       F               G
Dessa vez, você me perdeu

      C                   Am                                  
      Deixe a mala pronta, arrume as suas roupas               
R     F                              G              
e     Pode ir embora que eu arranjo outra                   
f     C                   Am                               
r     Eu to falando sério, pode acreditar                   
ã     F                                                  G     
o     Sabendo que eu tenho razão porque é que eu vou chorar  
                     C                                      
      Deixe a mala pronta                                     

Solo:  (C,Am,F,G)

Em                Am
Não dá mais, não valeu
       F               G
Dessa vez, você me perdeu

      C                   Am                                  
      Deixe a mala pronta, arrume as suas roupas               
R     F                              G              
e     Pode ir embora que eu arranjo outra                   
f     C                   Am                               
r     Eu to falando sério, pode acreditar                   
ã     F                                                  G     
o     Sabendo que eu tenho razão porque é que eu vou chorar  
(2x)                 C                                      
      Deixe a mala pronta
Colaboración y revision:
  • Rodolpho Daniel
18 reproducciones
    • ½ Tom
    • A
    • Bb
    • B
    • C
    • Db
    • D
    • Eb
    • E
    • F
    • F#
    • G
    • Ab
  • Adicionar à lista

    0 comentarios

    Mostrar mais comentários

    ¿Conseguiste tocar?

    0 Tocaron 0 Ainda não

    Grave um vídeo tocando Mala Pronta e mande pra gente!

    00:00 / 00:00
    outros vídeos desta música
    repetir qualidade Automático
    Outros vídeos desta música
    00:00 / 00:00
    Automático
    OK