Cifra Club

Voy A Olvidarme De Ti

Carlos Vives

Cifrado: Principal (guitarra y guitarra eléctrica)
Selo Cifra Club: esta cifra foi revisada para atender aos critérios oficiais da nossa Equipe de Qualidade.
tono: D
[Intro]

   A         E          D            Dm
E|-----------------------------------------------|
B|-----------------------------------------------|
G|------6-7---9--9h11-9---------7----------------|
D|--7-9-----------------------7---7--------------|
A|--------------------------9--------9-8---------|
E|-----------------------------------------------|

        A      E            D
E|---------------------------------------------|
B|--10-9----10-9---------10-9------------------|
G|-------9~------9-7-9--------9-7-7-6-6--------|
D|--------------------7----------------9-9-7---|
A|---------------------------------------------|
E|---------------------------------------------|

    Dm
E|--------------------------------------------|
B|--------------------------------------------|
G|---9-7-7-6-6-----6--------------------------|
D|-------------9-9---7------------------------|
A|--------------------------------------------|
E|--------------------------------------------|

[Primeira Parte]

              A
Que no es lo mismo decirle al
                      C#m
Espejo que te siento lejos
                                  D
Que muero por dentro y escucho el
 D
Silencio que la lluvia dice
           A    E
Que ya te perdí
             A
Que no me importa si la casa es grande
               C#m
Si me voy de viaje, que el negocio es bueno
               D
Si ese era mi sueño, si el carro
                          A  E
Que tengo corre a mas de mil

            D
Que me arrepiento de ser aguafiestas
         A
Todos estos años que viví contigo
       Bm
Que me perdones sino me di cuenta, que
   E
Fui tu dueño y quiero ser tu amigo

[Refrão]

         A
Voy afeitarme y a tender la cama
         F#m
Voy a ponerme mi mejor vestido
          D
Voy a servir tu puesto allá en la mesa
      Bm                           E
Para sentir que vuelvo a estar contigo
         A
Voy a pedirle al tiempo que no pase
         F#m
Voy a encender la luz de mis promesas
          D
Voy a sentarme al frente de la calle
        Bm                   E
Para esperar a ver si tu regresas

       A      E            D
E|---------------------------------------------------|
B|--10-9---------10-9----------10-9------------------|
G|-------9-7-9--------9-11-9--------9-7-7-6-6--------|
D|-------------7------------------------------9-9-7--|
A|---------------------------------------------------|
E|---------------------------------------------------|

    Dm
E|--------------------------------------------|
B|--------------------------------------------|
G|---9-7-7-6----------------------------------|
D|-----------9--------------------------------|
A|--------------------------------------------|
E|--------------------------------------------|

       A      E            D
E|---------------------------------------------------|
B|--10-9---------10-9----------10-9------------------|
G|-------9-7-9--------9-11-9--------9-7-7-6-6--------|
D|-------------7------------------------------9-9-7--|
A|---------------------------------------------------|
E|---------------------------------------------------|

    Dm
E|--------------------------------------------|
B|--------------------------------------------|
G|---9-7-7-6-6--------------------------------|
D|-------------9-9-7-7------------------------|
A|--------------------------------------------|
E|--------------------------------------------|

[Segunda Parte]

            A
He sido un tonto por dejarte sola
                C#m
Por buscar mil cosas

Por mi gran invento, si al final del
 D                                     A   E
Cuento ahora nada tengo si no estas aquí
             A
Que no me importa si la casa es grande
           C#m
Si me voy de viaje, que el negocio es bueno
               D
Si ese era mi sueño, si el carro
                          A  E
Que tengo corre a mas de mil

            D
Que me arrepiento de ser aguafiestas
         A
Todos estos años que viví contigo
       Bm
Que me perdones sino me di cuenta, que
       E
Fui tu dueño y quiero ser tu amigo

[Refrão]

         A
Voy afeitarme y a tender la cama
         F#m
Voy a ponerme mi mejor vestido
          D
Voy a servir tu puesto allá en la mesa
      Bm                           E
Para sentir que vuelvo a estar contigo
         A
Voy a pedirle al tiempo que no pase
         F#m
Voy a encender la luz de mis promesas
          D
Voy a sentarme al frente de la calle
        Bm                   E
Para esperar a ver si tu regresas

                 D
Voy a olvidarme de mi
                  A
Yo puedo hacerte feliz
               D    Dm
Nos quedaremos aquí
           A
Voy a olvidarme de mi
Otros videos de esta canción
    9.035 exhibiciones
      • ½ Tono
      • A
      • Bb
      • B
      • C
      • Db
      • D
      • Eb
      • E
      • F
      • F#
      • G
      • Ab
    • Agregar a la lista

    Afinación de cifrado

    Afinador online

      OK