Cifra Club

Aprenda

Seal The Deal

Volbeat

Tablatura: Principal (guitarra)
Tom: G
Intro:
E|----------------------------------------------------------|
B|----------------------------------------------------------|
G|----------------------------------------------------------|
D|----------------------------------------------------------|
A|-2-2-2-2-2-2-2-2-2-2-2-2-2-2-2-2--------------------------|
E|-0-0-0-0-0-0-0-0-0-0-0-0-0-0-0-0--------------------------|
 
Pos-Intro:
E|----------------------------------------------------------|
B|----------------------------------------------------------|
G|----------------------------------------------------7-----|
D|-----------------------------------------------7-9--5--7--|
A|-----------------------5--7--------------------5-7-----5--|
E|-0-0-3-0-3-0-0-0-3-0-0-3--5--0--0-3-0-3-0-0-0-------------|

E|----------------------------------------------------------|
B|----------------------------------------------------------|
G|----------------------------------------------------------|
D|-9--------------------------------------------------------|
A|-7---------------------5--7---7--7-7--7-7-7-9--9-9--9-9-9-|
E|---0-3-0-3-0-0-0-3-0-0-3--5---5--5-5--5-5-5-7--7-7--7-7-7-|

Verso:
E|----------------------------------------------------------|
B|----------------------------------------------------------|
G|----------------------------------------------------------|
D|-----------------------------------------5----------------|
A|----------------------------5-7--------5---5-7------------|
E|-0-0-0-0-0-0-0-0-0-0-0-0--0------0-0-0--------------------|

Sold my soul and signed my name in blood
Stole it back now praying in the dark
Fooled the devil, begging for a fight
Count the dollars make your bet tonight

Pre-Refrão:
E|----------------------------------------------------------|
B|----------------------------------------------------------|
G|----------------------------------------------------------|
D|----------------------------------------------------------|
A|-9----7----9-----7--9-----7---7/9---7/9---7/9-------------|
E|-7----5----7-----5--7-----5---5/7---5/7---5/7-------------|

Feel strong like an oiled machine
All the anger boils within
Move it, give it
The high rollers are in

Refrão:
E|-----------------------------------------------------------------------------------------|
B|-----------------------------------------------------------------------------------------|
G|--9---9--9-9--9--9-9---------------------------------------------------------------------|
D|--9---9--9-9--9--9-9-10-10--10-10--8--10--10-------7--7--7-7-7--7--7-7--9-9-9--9-9-9-9-9-|
A|--7---7--7-7--7--7-7-10-10--10-10--8--10--10--x-x--7--7--7-7-7--7--7-7--7-7-7--7-7-7-7-7-|
E|---------------------8--8---8--8---8--8---8---x-x--5--5--5-5-5--5--5-5-------------------|

I get groovy now turn it on and fight
Seal the deal and let's boogie for a while
Let's get groovy, burning out with rage
Seal the deal, and let's do it all again

Solo:?
E|----------------------------------------------------------|
B|----------------------------------------------------------|
G|----------------------------------------------------7-----|
D|-----------------------------------------------7-9--5--7--|
A|-----------------------5--7--------------------5-7-----5--|
E|-0-0-3-0-3-0-0-0-3-0-0-3--5--0--0-3-0-3-0-0-0-------------|

E|----------------------------------------------------------|
B|----------------------------------------------------------|
G|----------------------------------------------------------|
D|-9--------------------------------------------------------|
A|-7---------------------5--7---7--7-7--7-7-7-9--9-9--9-9-9-|
E|---0-3-0-3-0-0-0-3-0-0-3--5---5--5-5--5-5-5-7--7-7--7-7-7-|

Verso:
E|----------------------------------------------------------|
B|----------------------------------------------------------|
G|----------------------------------------------------------|
D|-----------------------------------------5----------------|
A|----------------------------5-7--------5---5-7------------|
E|-0-0-0-0-0-0-0-0-0-0-0-0--0------0-0-0--------------------|

Knuckles crushed my eyes no longer see
I paid the price and fed the family

Pre-Refrão:
E|----------------------------------------------------------|
B|----------------------------------------------------------|
G|----------------------------------------------------------|
D|----------------------------------------------------------|
A|-9----7----9-----7--9-----7---7/9---7/9---7/9-------------|
E|-7----5----7-----5--7-----5---5/7---5/7---5/7-------------|

Feel strong like an oiled machine
All the anger boils within
Move it, give it
The high rollers are in

Refrão:
E|-----------------------------------------------------------------------------------------|
B|-----------------------------------------------------------------------------------------|
G|--9---9--9-9--9--9-9---------------------------------------------------------------------|
D|--9---9--9-9--9--9-9-10-10--10-10--8--10--10-------7--7--7-7-7--7--7-7--9-9-9--9-9-9-9-9-|
A|--7---7--7-7--7--7-7-10-10--10-10--8--10--10--x-x--7--7--7-7-7--7--7-7--7-7-7--7-7-7-7-7-|
E|---------------------8--8---8--8---8--8---8---x-x--5--5--5-5-5--5--5-5-------------------|

I get groovy now turn it on and fight
Seal the deal and let's boogie for a while
Let's get groovy, burning out with rage
Seal the deal, and let's do it all again

Ponte:
E|-----------------------------------------------------------------------------------------|
B|-----------------------------------------------------------------------------------------|
G|--------5---2---------5---2---------5---2------------------------------------------------|
D|--2~~---5---2---2~~---5---2---2~~---5---2---4-4-4-4-4-4-4-4--2-2-2-2--4-4-4-4------------|
A|--2~~---3---0---2~~---3---0---2~~---3---0---2-2-2-2-2-2-2-2--0-0-0-0--2-2-2-2--5-5-------|
E|--0~~-----------0~~-----------0~~----------------------------------------------3-3-------|

Sing hallelujah, the devil in disguise
There'll be no more pearly gates
So stand up for yourself this time
Fight for honor, let no one drag you down no more
Be your own man, with blood sweat tears you fall

Pre-Solo: 2x
E|--------------------------------------------------------------|
B|--------------------------------------------------------------|
G|--------------------------------------------------------------|
D|--------------------------------------------------------------|
A|--------------------5-----5/7-7-------------------5--5--5-----|
E|--3-0-0-0-0-0-3-0-0---0-0-------3-0-0-0-0-0-3-0-0-------------|

E|--------------------------------------------------------------|
B|--------------------------------------------------------------|
G|--------------------------------------------------------------|
D|--------------------------------------------------------------|
A|--------------------5-----5/7-7-----5/7-7---------------------|
E|--3-0-0-0-0-0-3-0-0---0-0-------0-0-------0-0-6-5-5-5/3-3-3/0-|

Solo:? 2x
E|----------------------------------------------------------|
B|----------------------------------------------------------|
G|----------------------------------------------------------|
D|----------------------------------------------------------|
A|----------------------------------------------------5-5-5-|
E|-3-0-0-0-0-0-3-0-0-0-0-0-0-0-0-0--3-0-0-0-0-0-3-0-0-------|

E|----------------------------------------------------------------|
B|----------------------------------------------------------------|
G|----------------------------------------------------------------|
D|----------------------------------------------------------------|
A|--------------------------------------5/7-7---------------------|
E|-3-0-0-0-0-0-3-0-0-0-0-0-0-0-0-0--0-0-------0-0-6/5-5-5/3-3-3/0-|

Refrão:
E|-----------------------------------------------------------------------------------------|
B|-----------------------------------------------------------------------------------------|
G|--9---9--9-9--9--9-9---------------------------------------------------------------------|
D|--9---9--9-9--9--9-9-10-10--10-10--8--10--10-------7--7--7-7-7--7--7-7--9-9-9--9-9-9-9-9-|
A|--7---7--7-7--7--7-7-10-10--10-10--8--10--10--x-x--7--7--7-7-7--7--7-7--7-7-7--7-7-7-7-7-|
E|---------------------8--8---8--8---8--8---8---x-x--5--5--5-5-5--5--5-5-------------------|

I get groovy now turn it on and fight
Seal the deal and let's boogie for a while
Let's get groovy, burning out with rage
Seal the deal, and let's do it all again

I get groovy now turn it on and fight
Seal the deal and let's boogie for a while
Let's get groovy, burning out with rage
Seal the deal, and let's do it all again

Final:
E|----------------------------------------------------------|
B|----------------------------------------------------------|
G|----------------------------------------------------7-----|
D|-----------------------------------------------7-9--5--7--|
A|-----------------------5--7--------------------5-7-----5--|
E|-0-0-3-0-3-0-0-0-3-0-0-3--5--0--0-3-0-3-0-0-0-------------|

E|----------------------------------------------------------|
B|----------------------------------------------------------|
G|----------------------------------------------------------|
D|-9--------------------------------------------------------|
A|-7---------------------5--7---7--7-7--7-7-7-9--9-9--9-9-9-|
E|---0-3-0-3-0-0-0-3-0-0-3--5---5--5-5--5-5-5-7--7-7--7-7-7-|

E|----------------------------------------------------------|
B|----------------------------------------------------------|
G|----------------------------------------------------------|
D|----------------------------------------------------------|
A|------------------------5--7-----------------5-7-7-7------|
E|-0--0-3-0-3-0-0-0-3-0-0-3--5--0--0-3-0-3-0-0--------------|

E|----------------------------------------------------------|
B|----------------------------------------------------------|
G|----------------------------------------------------------|
D|----------------------------------------------------------|
A|------------------------5--7--7--7-7--7-7-7-9--9-9--9-9-9-|
E|-0--0-3-0-3-0-0-0-3-0-0-3--5--5--5-5--5-5-5-7--7-7--7-7-7-|

E|-------------------------------|
B|-------------------------------|
G|-------------------------------|
D|-------------------------------|
A|-7--7-7--7-7-7-9--9-9--9-9-9---|
E|-5--5-5--5-5-5-7--7-7--7-7-7---|

E|---------------------------------------------------------------|
B|---------------------------------------------------------------|
G|---------------------------------------------------------------|
D|-------------------------------------------4-4-4-4---------2~~-|
A|-7--7-7--7-7-7-9--9-9--9-9-9---7-7-7-7-----2-2-2-2---5-5---2~~-|
E|-5--5-5--5-5-5-7--7-7--7-7-7---5-5-5-5---------------3-3---0~~-|
Compositor Jon Larsen / Michael Poulsen
Colaboración y revision:
  • Giancarlo Giusti
9 reproducciones
    • ½ Tom
    • A
    • Bb
    • B
    • C
    • Db
    • D
    • Eb
    • E
    • F
    • F#
    • G
    • Ab
  • Adicionar à lista

    0 comentarios

    Mostrar mais comentários

    ¿Conseguiste tocar?

    0 Tocaron 0 Ainda não

    Grave um vídeo tocando Seal The Deal e mande pra gente!

    00:00 / 00:00
    outros vídeos desta música
    repetir qualidade Automático
    Outros vídeos desta música
    00:00 / 00:00
    Automático
    OK