Cifra Club

O Escudo

Voz da Verdade

Cifrado: Principal (guitarra y guitarra eléctrica)
Selo Cifra Club: esta cifra foi revisada para atender aos critérios oficiais da nossa Equipe de Qualidade.
tono: D
[Intro] D  Em7  A  D  D2

[Primeira Parte]

                D    
Por toda minha vida
                  Em
Ó Senhor te louvarei
                         A      
Pois meu fôlego é a tua vida
                 D
E nunca me cansarei
                   D2      
Posso ouvir a sua voz
                      Em7
É mais doce do que o mel
                   A     
Que me tira desta cova
                 D  D2
E me leva até o céu
                     D    
Já ví fogo e terremoto
                    Em
Vento forte que passou
                  A     
Já vivi tantos perigos
                    D  D2
Mas tua voz me acalmou
                    D           
Tú dás ordem as estrelas
                    Em7  Em9  Em7
E ao mar os seus limites
                   A       
Eu me sinto tão seguro
                 D      D2  D
No teu colo ó altíssimo

[Refrão]

           Bm7         F#m    
Não há ferrolhos, nem portas
        G       A            D
Que se fechem diante da Tua voz
        A/C#  Bm7         F#m    
Não há do_____enças, nem culpas
     G         A            D       
Que fiquem de pé diante de nós
           Bm7       F#m
E a tempestade, se acalma
    G            A         D    
Na voz Daquele que tudo criou
          A/C#  Bm7      F#m
Pois Sua pa____lavra, é pura
   G             A        D
Escudo para os que Nele crêem

[Solo] Bm7  F#m  G  A  D
       Bm7  F#m  G  A  D

[Tab - Solo]

E|---0-2-0------5-2--5-3-3-2-2-0-0---2------|
B|-3-------3--3--------------------3--------|
G|------------------------------------------|
D|------------------------------------------|
A|------------------------------------------|
E|------------------------------------------|

E|-10-12-14-12-10--10-17-14-----------------|
B|------------------------------------------|
G|------------------------------------------|
D|------------------------------------------|
A|------------------------------------------|
E|------------------------------------------|

E|-17-17-15-15-14-12--10-10-----------------|
B|------------------------------------------|
G|------------------------------------------|
D|------------------------------------------|
A|------------------------------------------|
E|------------------------------------------|

[Refrão]

           Bm7         F#m    
Não há ferrolhos, nem portas
        G       A            D
Que se fechem diante da tua voz
        A/C#  Bm7         F#m    
Não há do_____enças, nem culpas
     G         A            D       
Que fiquem de pé diante de nós
           Bm7       F#m
E a tempestade, se acalma
    G            A         D    
Na voz Daquele que tudo criou
          A/C#  Bm7      F#m
Pois Sua pa____lavra, é pura
   G             A        D
Escudo para os que Nele crêem
Otros videos de esta canción
    25.778 exhibiciones
    • Simplificar cifrado
      • ½ Tono
      • A
      • Bb
      • B
      • C
      • Db
      • D
      • Eb
      • E
      • F
      • F#
      • G
      • Ab
    • Agregar a la lista

    Afinação da cifra

    Afinador online

      Ops (: Contenido disponible solo en portugués.
      OK