Enviar cifraEntrar

Pra Que ?

Voz da Verdade

Acordes: Principal
reproducciones 400
Tono: E
Intro: F#m  E  A  E E4 E  F#m  E  A  E

Solo:


E|-2/4-2-0-2---2/4-----4h5p4-------------------------4-4-5/7-7-7-5-4h5p4-----|
B|-----------------2---------5/7-7/9-9-9---------------------------------5-------------------|
G|-----------------------------------------1h2p1----------------------------------------------|
D|---------------------------------------------2-------------------------------------------------|
A|------------------------------------------------------------------------------------------------|
E|-----------------------------------------------------------------------------------------------|


E|-------------4-5-4---------0---0---0---0----0---------|
B|-------5-5---------5h7-5-----4---2---0---------------|
G|-6-4-6------------------------------------2---1--------|
D|----------------------------------------------------------|
A|----------------------------------------------------------|
E|----------------------------------------------------------|


          F#m G#m A        E  E4 E
Vou lhe falar,     de um alguém
           F#m G#m A           E  E4 E
Que pode levar,     seus sonhos além
           F#m G#m A           E E4 E
Vou lhe mostrar,    um mundo melhor
        F#m G#m A        B     E
Que mudará       seu caminho
    E/G#  A      B     B/D#
Vou lhe falar de um só Deus
        G#m      C#m  E
Que mudará a sua vida
           A               B
Na cruz morreu, doou o seu sangue
         G#m           C#m  B
Só pra curar as suas feridas
       A            B
E este homem está aqui
           G#m         B
Só pra te amar e pra dizer

( F#m G#m  A  E E4 E  F#m G#m    A  E )

          F#m G#m  A         E   E4 E
Vou lhe falar,      de um alguém
           F#m G#m A            E   E4 E
Que pode levar,     seus sonhos além
           F#m G#m A            E   E4 E
Vou lhe mostrar,    um mundo melhor
        F#m G#m A        B     E
Que mudará       seu caminho
    E/G#  A      B     B/D#
Vou lhe falar de um só Deus
        G#m      C#m  E
Que mudará a sua vida
           A               B
Na cruz morreu, doou o seu sangue
         G#m           C#m  B
Só pra curar as suas feridas
       A            B
E este homem está aqui
           G#m         B
Só pra te amar e pra dizer



    E       C#m    G#m
Pra quê? chorar, sofrer
         A             B          E
Se há um Deus que tudo pode por você
    C#m      G#m
Pra quê? solidão
      A              B               E
Deixe Jesus cristo entrar no teu coração

Solo: ( C#m  G#m  A  B  E  )

   E       C#m    G#m
Pra quê? chorar, sofrer
         A             B          E
Se há um Deus que tudo pode por você
    C#m      G#m
Pra quê? solidão
      A              B               E
Deixe Jesus cristo entrar no teu coração

Solo: C#m  G#m  A  B

   C#m     G#m
Pra quê? solidão
      A              B               A   E4  E
Deixe Jesus cristo entrar no teu coração

Pra quê?
  • 1
  • 2
  • 3
  • 4
  • 5
  • 6
  • 7
  • 8
  • 9
  • 10
  • 11
  • 12

    0 comentarios

      mostrar mas comentarios

      ¿Conseguiste tocar?

      63tocaron1aún no

      ¡Grave un vídeo tocando Pra Que ? y envie para nosotros!

      00:00 / 00:00
      outros vídeos desta música
      repetirqualidadeautomática
      • automática
      Outro vídeos desta música
        00:00 / 00:00
        automática
        • automática
        1 versión de Contrabajoreproduccionescontribuciones
        1 versión de Guitar Proformatodownloadscontribución
        cerrarplay/pause subir/bajar velocidad
          Acordes para:guitarra
          acordes
          cerrar
          OK