Cifra Club

Faut Pas Sleurrer

Vulgaires Machins

Cifrado: Principal (guitarra y guitarra eléctrica)
Selo Cifra Club: esta cifra foi revisada para atender aos critérios oficiais da nossa Equipe de Qualidade.
tono: G
Intro

guit 1
E|----------------------------------------------------------|---------------|
B|----------------------------------------------------------|--15--14-14--x8|
G|--------10--14-12-10-9-10--------10--14-12-10-9-10-12-14~-|--14--14-14----|
D|--10h12--------------------10h12--------------------------|---------------|
A|----------------------------------------------------------|---------------|
E|----------------------------------------------------------|---------------|

guit 2 (4 temps chaques accords)
E|--2--1-----3-----------10-----8-----|
B|--3--1--1--3-----------10-10--8--12-|
G|--2--2--0--0-----o| u----11-10--9--12-|---x4
D|--0--3--2--0-----------12-10-10--12-|
A|-----3--3--2-----------12--8-10--10-|
E|-----1-----3-----------10-----8-----|

||||||||||||||||||||||||||||||||||||||||||||||||||||||||||||||||||||||||||||||||

jouer le reste de la chanson comme elle est écrit
(écouter la toune pour les temps)
  je dis bonjour à l'anarchie...
E|--2--1-----3-----|-----------------------------------|
B|--3--1--1--3-----|-----------------------------------|
G|--2--2--0--0--x4-|--7-----10-------------------------|
D|--0--3--2--0-----|--7--x4-10--x4-10-----5---------X2-|
A|-----3--3--2-----|--5------8-----10--x4-5--x4--------|
E|-----1-----3-----|----------------8-----3------------|

   j'ai bien tanté d'me conformer...
E|--2--1-----3-----|-----------------------------------|
B|--3--1--1--3-----|-----------------------------------|
G|--2--2--0--0--x4-|--7-----10-------------------------|
D|--0--3--2--0-----|--7--x4-10--x4-10-----5---------X2-|
A|-----3--3--2-----|--5------8-----10--x4-5--x4--------|
E|-----1-----3-----|----------------8-----3------------|

essayer pas d'me dire...
E|-------------------------------------------------------------|
B|-------------------------------------------------------------|
G|-10---------------------------------5------3-----------------|
D|-10--x4-10-----8-----10------3------5--x4--3--| laisser sonner)|
A|--8-----10--x4-8--x4-10--x4--3--x4--3------1-----------------|
E|---------8-----6------8------1-------------------------------|

  ( 4 coups de pic chauque accords)
E|--10-----8--------|
B|--10-10--8--12----|
G|--11-10--9--12--x2| répeter 4 fois mais entre le 2e et le 3e accord seulement
D|--12-10-10--12----| une fois ( écouter la toune)
A|--12--8-10--10----|
E|--10-----8--------| --------------------------|
                                                   |
répetez le tout fauf l'intro et le parti au dessus |
Otros videos de esta canción
    0 exhibiciones
      • ½ Tono
      • A
      • Bb
      • B
      • C
      • Db
      • D
      • Eb
      • E
      • F
      • F#
      • G
      • Ab
    • Agregar a la lista

    Afinação da cifra

    Afinador online

      Ops (: Contenido disponible solo en portugués.
      OK