Cifra Club

Dedicated

Wakefield

Cifrado: Principal (guitarra y guitarra eléctrica)
Selo Cifra Club: esta cifra foi revisada para atender aos critérios oficiais da nossa Equipe de Qualidade.
tono: E
By:Andrew Mcshan(G*)

Intro
e|----x-----x-----x--------x-----x-----x-------------------------------------|
B|----x-----x-----x--------x-----x-----x-------------------------------------|
G|-4--x-----x-----x-----4--x-----x-----x--9-9-9------------------------------|
D|-4--x--4--x--6--x--2--4--x--4--x--6--x--x-x-x------------------------------|
A|-2--x--4--x--6--x--2--2--x--4--x--6--x--7-7-7------------------------------|
E|----x--2--x--4--x--0-----x--2--x--4--x-------------------------------------|

then Guitar 2 Comes in 

e|---------------------------------------------------------------------------|
B|------------------12-------12--------9------9------12------12---9---9------|
G|-4-6-8-4-4-6-8-9-----11-11----11-11----9--9---9--9----10-10---10---9--9-11-|
D|-x-x-x-x-x-x-x-x-----------------------------------------------------------|
A|-2-4-6-2-2-4-6-7-----------------------------------------------------------|
E|---------------------------------------------------------------------------|
Verse
e|---------------------------------------------------------------------------|
B|---------------------------------------------------------------------------|
G|-4-4-4-4-------------------------------------------------------------------|
D|-4-4-4-4--4-4-4-4---2-2-2-2-x2-4--2--4--2----------------------------------|
A|-2-2-2-2--4-4-4-4---2-2-2-2----4--2--4--2----------------------------------|
E|----------2-2-2-2---0-0-0-0----2--0--2--0----------------------------------|
Chorus
e|---------------------------------------------------------------------------|
B|---------------------------------------------------------------------------|
G|-4-4-4-4-------------------------------------------------------------------|
D|-4-4-4-4--4-4-4-4--6-6-6-6-2-2-2-2-----------------------------------------|
A|-2-2-2-2--4-4-4-4--6-6-6-6-2-2-2-2-----------------------------------------|
E|----------2-2-2-2--4-4-4-4-0-0-0-0-----------------------------------------|
Verse 2 
e|---------------------------------------------------------------------------|
B|---------------------------------------------------------------------------|
G|-4-4-4---8/9/8-------------8/9/8-------------------------------------------|
D|-4-4-4---------9-11-4-4-4---------9-11---2-2--2-2--------------------------|
A|-2-2-2--------------4-4-4----------------2-2--2-2--------------------------|
E|--------------------2-2-2----------------0-0--0-0--------------------------|
  Pm....              .....                ...  ...
Bridge
e|---------------------------------------------------------------------------|
B|---------------------------------------------------------------------------|
G|-4-3-4-3-4-3-----4-4-4-6-6-6-8-8-8/6-6-6/8-8-8-----------------------------|
D|-x-x-x-x-x-x-----4-4-4-6-6-6-8-8-8/6-6-6/8-8-8-----------------------------|
A|-2-1-2-1-2-1-----2-2-2-4-4-4-6-6-6/4-4-4/6-6-6-----------------------------|
E|---------------------------------------------------------------------------|
Otros videos de esta canción
    189 exhibiciones
      • ½ Tono
      • A
      • Bb
      • B
      • C
      • Db
      • D
      • Eb
      • E
      • F
      • F#
      • G
      • Ab
    • Agregar a la lista

    Afinación de cifrado

    Afinador online

      OK