Cifra Club

1980's Horror Film

Wallows

Cifrado: Principal (guitarra y guitarra eléctrica)
tono: G
[Intro]

E|----2------2------2------2---------2------2------2------2--------------|
B|-----3------3------3------3---------3------3------3------3-------------|
G|--2-----0-------------0----------2-----0-------------0-----------------|
D|--------------2------4------4----------------2------4------4-----------|
A|-----------------------------------------------------------------------|
E|-----------------------------------------------------------------------|

[Riff 2]

E|----2------2------2------2---------2------2------2------2--------------|
B|-----3------3------3------3---------3------3------3------3-------------|
G|--2-----0-------------0----------2-----0-------------0-----------------|
D|--------------2------4------4----------------2------4------4-----------|
A|-----------------------------------------------------------------------|
E|-----------------------------------------------------------------------|

[Riff 2]

She
Was only seventeen
Oh, why are girls in songs always seventeen?

She
Was from a movie scene
And now she plays in my head all day

[Refrão]

G                A
She called me up
D           Em
And let me in
G                   A
I couldn't feel my legs
G                 A
She walked me back
D         Bm
Into her room
             G
But just to see
A
A 1980s horror film

[Riff 2]

I
Oh, I was so scared
She had the curtains down
So there was no glare

She pulled up a chair
And gave me the bed
And all these crazy things
Went through my head

[Refrão]

G              A
It seemed so long
D           Em
I need someone
G                     A
I don't know what to say
G                 A
She was sitting there
D                  Bm
I could touch her hair
              G
But still we watched
A
A 1980s horror film

[Ponte]

D                           Bm      A
Jamie, I don't know what to say to you
D                           Bm      A
I feel you're always on my mind
Em              G           D
But now that I know what I need
     A                   Em          G
I'm taking the long way round in my mind
          D
It's not right
    A                   Em      G
I can't help the way I feel anymore
       D       A            Em
And I need to ask you Jamie oh,
        G
Can it be?
          D              A
That you feel, this way too?

[Refrão]

G                  A
The lights were off
D               Em
The mood was right
G                      A
She came and laid with me
G                   A
I looked into her eyes
D                     Bm
And tried to make her mine
              G
But then she said
A
"I'm really not that into guys"

[Final]

E|----2------2------2------2---------2------2------2------2--------------|
B|-----3------3------3------3---------3------3------3------3-------------|
G|--2-----0-------------0----------2-----0-------------0-----------------|
D|--------------2------4------4----------------2------4------4-----------|
A|-----------------------------------------------------------------------|
E|-----------------------------------------------------------------------|
Composición de Braeden Lemasters
Colaboración y revisión:
  • Ana Nicoli
  • Júnior Lüz
208 vistas
    • ½ Tono
    • A
    • Bb
    • B
    • C
    • Db
    • D
    • Eb
    • E
    • F
    • F#
    • G
    • Ab
  • Agregar a la lista

    0 comentarios

    Ver todos los comentarios

    ¿Lograste tocar?

    3 Tocaron 0 Aún no

    ¡Graba un video tocando 1980's Horror Film y envíanoslo!

    00:00 / 00:00
    Outros vídeos desta música
    Repetir Calidad Automático
    Outros vídeos desta música
    00:00 / 00:00
    Automático
    OK