Cifra Club

Are You Bored Yet

Wallows

Cifrado: Principal (guitarra y guitarra eléctrica)
tono: A
Obs

Fazer A NOTA B(SI) com formato de fá na 7° casa

E FAZER A NOTA A#m NA 6° CASA


[Intro] G#m C# F# B A#m

  Ou

Bater UMA VEZ EM CADA NOTA G#m C# F# E DEPOIS O RIFF

3X

E|---6---6-9-6---6--------------6---------------------------------|
B|-9---9-------9---9----7-9-7-9---9-7--7--------------------------|
G|------------------------------------8---------------------------|
D|----------------------------------------------------------------|
A|----------------------------------------------------------------|
E|----------------------------------------------------------------|


B
What's wrong?
D#m                      F#
You've been asking but I don't have an answer
B
 How come?
D#m                           F#
 I'm still thinking, let's pretend to fall asleep now
B           D#m                      
When we get old, will we regret this?
F#            F# 
 Too young to think about all that shit
B                 D#m                     F# 
And stalling only goes so far when you've got a head start

B                                D#m 
'Cause we could stay at home and watch the sunset
F#                            F#
But I can't help from asking, "Are you bored yet?"
B                             D#m
And if you're feeling lonely, you should tell me
F#                      F#   
Before this ends up as another memory


[Riff]

No LUGAR DA NOTA F#

E|---6-11-9--------------9----------------------------------------|
B|-7--------11-9----9-11---11-------------------------------------|
G|---------------11-----------------------------------------------|
D|----------------------------------------------------------------|
A|----------------------------------------------------------------|
E|----------------------------------------------------------------|

B                       D#m                F#    F#
Will you tell the truth so I don't have to lie?
B                       D#m                F#    F#
Will you tell the truth so I don't have to lie?



G#m             C#                 F#   
Feels like I've known you my whole life
                 B           A#m   
I can see right through your lies
G#m          C#
I don't know where we're going
         F#           B     A#m  
But I'd like to be by your side
G#m                  C#
If you could tell me how you're feeling
 F#                         B    A#m
Maybe we'd get through this undefeated
G#m     C#         F#        B   A#m         
Holding on for so long

G#m                              C#
'Cause we could stay at home and watch the sunset
F#                             B       A#m
But I can't help from asking, "Are you bored yet?"
G#m                           C#
And if you're feeling lonely, you should tell me
F#                     B       A#m
Before this ends up as another memory

[Riff]

No LUGAR DA NOTA F#

E|---6-11-9--------------9----------------------------------------|
B|-7--------11-9----9-11---11-------------------------------------|
G|---------------11-----------------------------------------------|
D|----------------------------------------------------------------|
A|----------------------------------------------------------------|
E|----------------------------------------------------------------|

B                       D#m                F#    C#     
Will you tell the truth so I don't have to lie?
B                       D#m                F#                                    
Will you tell the truth so I don't have to lie?

[Final] B   D#m  F#  C# (2x)

         G#m  C#  A#m  D#m 

         G#m  C#  F#  F#

    Ou

[Solo]

2X

E|---6---6-9-6---6--------------6---------------------------------|
B|-9---9-------9---9----7-9-7-9---9-7--7--------------------------|
G|------------------------------------8---------------------------|
D|----------------------------------------------------------------|
A|----------------------------------------------------------------|
E|----------------------------------------------------------------|

1X

E|--------------------------------------------------------------|
B|-9-11-9-11/14----11-9-11-14/6-7----9-11-9-7-9-----------------|
G|--------------------------------------------------------------|
D|--------------------------------------------------------------|
A|--------------------------------------------------------------|
E|--------------------------------------------------------------|

E|--------------------------------------------------------------|
B|-9-11-9-11/14----11-9-11-14/6-7----9-9~-----------------------|
G|--------------------------------------------------------------|
D|--------------------------------------------------------------|
A|--------------------------------------------------------------|
E|--------------------------------------------------------------|
00:00 / 00:00
Otros videos de esta canción
Repetir
Otros videos de esta canción
Composición de Braeden Lemasters / Claire Cottrill / Cole Preston / Dylan Minnette
Colaboración y revisión:
4.612 vistas
    • ½ Tono
    • A
    • Bb
    • B
    • C
    • Db
    • D
    • Eb
    • E
    • F
    • F#
    • G
    • Ab
  • Agregar a la lista

    0 comentarios

    Ver todos los comentarios

    ¿Lograste tocar?

    19 Tocaron 5 Aún no

    ¡Graba un video tocando Are You Bored Yet y envíanoslo!

    00:00 / 00:00
    OK